  0
SECTION
  2
HEADER
  9
$ACADVER
  1
AC1032
  9
$ACADMAINTVER
 90
      228
  9
$DWGCODEPAGE
  3
ANSI_1252
  9
$REQUIREDVERSIONS
160
                 0
  9
$INSBASE
 10
0.0
 20
0.0
 30
0.0
  9
$EXTMIN
 10
596150.0
 20
946480.0
 30
0.0
  9
$EXTMAX
 10
614220.1719000005
 20
973098.4062
 30
10.0
  9
$LIMMIN
 10
0.0
 20
0.0
  9
$LIMMAX
 10
12.0
 20
9.0
  9
$ORTHOMODE
 70
     1
  9
$REGENMODE
 70
     1
  9
$FILLMODE
 70
     1
  9
$QTEXTMODE
 70
     0
  9
$MIRRTEXT
 70
     1
  9
$LTSCALE
 40
1.0
  9
$ATTMODE
 70
     1
  9
$TEXTSIZE
 40
0.2
  9
$TRACEWID
 40
0.05
  9
$TEXTSTYLE
  7
Standard
  9
$CLAYER
  8
PUNTI
  9
$CELTYPE
  6
ByLayer
  9
$CECOLOR
 62
   256
  9
$CELTSCALE
 40
1.0
  9
$DISPSILH
 70
     0
  9
$DIMSCALE
 40
1.0
  9
$DIMASZ
 40
0.18
  9
$DIMEXO
 40
0.0625
  9
$DIMDLI
 40
0.38
  9
$DIMRND
 40
0.0
  9
$DIMDLE
 40
0.0
  9
$DIMEXE
 40
0.18
  9
$DIMTP
 40
0.0
  9
$DIMTM
 40
0.0
  9
$DIMTXT
 40
0.18
  9
$DIMCEN
 40
0.09
  9
$DIMTSZ
 40
0.0
  9
$DIMTOL
 70
     0
  9
$DIMLIM
 70
     0
  9
$DIMTIH
 70
     1
  9
$DIMTOH
 70
     1
  9
$DIMSE1
 70
     0
  9
$DIMSE2
 70
     0
  9
$DIMTAD
 70
     0
  9
$DIMZIN
 70
     0
  9
$DIMBLK
  1

  9
$DIMASO
 70
     1
  9
$DIMSHO
 70
     1
  9
$DIMPOST
  1

  9
$DIMAPOST
  1

  9
$DIMALT
 70
     0
  9
$DIMALTD
 70
     2
  9
$DIMALTF
 40
25.4
  9
$DIMLFAC
 40
1.0
  9
$DIMTOFL
 70
     0
  9
$DIMTVP
 40
0.0
  9
$DIMTIX
 70
     0
  9
$DIMSOXD
 70
     0
  9
$DIMSAH
 70
     0
  9
$DIMBLK1
  1

  9
$DIMBLK2
  1

  9
$DIMSTYLE
  2
Standard
  9
$DIMCLRD
 70
     0
  9
$DIMCLRE
 70
     0
  9
$DIMCLRT
 70
     0
  9
$DIMTFAC
 40
1.0
  9
$DIMGAP
 40
0.09
  9
$DIMJUST
 70
     0
  9
$DIMSD1
 70
     0
  9
$DIMSD2
 70
     0
  9
$DIMTOLJ
 70
     1
  9
$DIMTZIN
 70
     0
  9
$DIMALTZ
 70
     0
  9
$DIMALTTZ
 70
     0
  9
$DIMUPT
 70
     0
  9
$DIMDEC
 70
     4
  9
$DIMTDEC
 70
     4
  9
$DIMALTU
 70
     2
  9
$DIMALTTD
 70
     2
  9
$DIMTXSTY
  7
Standard
  9
$DIMAUNIT
 70
     0
  9
$DIMADEC
 70
     0
  9
$DIMALTRND
 40
0.0
  9
$DIMAZIN
 70
     0
  9
$DIMDSEP
 70
    46
  9
$DIMATFIT
 70
     3
  9
$DIMFRAC
 70
     0
  9
$DIMLDRBLK
  1

  9
$DIMLUNIT
 70
     2
  9
$DIMLWD
 70
    -2
  9
$DIMLWE
 70
    -2
  9
$DIMTMOVE
 70
     0
  9
$DIMFXL
 40
1.0
  9
$DIMFXLON
 70
     0
  9
$DIMJOGANG
 40
0.7853981633974483
  9
$DIMTFILL
 70
     0
  9
$DIMTFILLCLR
 70
     0
  9
$DIMARCSYM
 70
     0
  9
$DIMLTYPE
  6

  9
$DIMLTEX1
  6

  9
$DIMLTEX2
  6

  9
$DIMTXTDIRECTION
 70
     0
  9
$LUNITS
 70
     2
  9
$LUPREC
 70
     4
  9
$SKETCHINC
 40
0.1
  9
$FILLETRAD
 40
0.5
  9
$AUNITS
 70
     0
  9
$AUPREC
 70
     0
  9
$MENU
  1
.
  9
$ELEVATION
 40
0.0
  9
$PELEVATION
 40
0.0
  9
$THICKNESS
 40
0.0
  9
$LIMCHECK
 70
     0
  9
$CHAMFERA
 40
0.5
  9
$CHAMFERB
 40
0.5
  9
$CHAMFERC
 40
1.0
  9
$CHAMFERD
 40
0.0
  9
$SKPOLY
 70
     0
  9
$TDCREATE
 40
2454956.497800926
  9
$TDUCREATE
 40
2454956.414478588
  9
$TDUPDATE
 40
2459926.395254630
  9
$TDUUPDATE
 40
2459926.353587963
  9
$TDINDWG
 40
0.1031402315
  9
$TDUSRTIMER
 40
0.1031402315
  9
$USRTIMER
 70
     1
  9
$ANGBASE
 50
0.0
  9
$ANGDIR
 70
     0
  9
$PDMODE
 70
     0
  9
$PDSIZE
 40
0.0
  9
$PLINEWID
 40
14.0
  9
$SPLFRAME
 70
     0
  9
$SPLINETYPE
 70
     6
  9
$SPLINESEGS
 70
     8
  9
$HANDSEED
  5
161
  9
$SURFTAB1
 70
     6
  9
$SURFTAB2
 70
     6
  9
$SURFTYPE
 70
     6
  9
$SURFU
 70
     6
  9
$SURFV
 70
     6
  9
$UCSBASE
  2

  9
$UCSNAME
  2

  9
$UCSORG
 10
0.0
 20
0.0
 30
0.0
  9
$UCSXDIR
 10
1.0
 20
0.0
 30
0.0
  9
$UCSYDIR
 10
0.0
 20
1.0
 30
0.0
  9
$UCSORTHOREF
  2

  9
$UCSORTHOVIEW
 70
     0
  9
$UCSORGTOP
 10
0.0
 20
0.0
 30
0.0
  9
$UCSORGBOTTOM
 10
0.0
 20
0.0
 30
0.0
  9
$UCSORGLEFT
 10
0.0
 20
0.0
 30
0.0
  9
$UCSORGRIGHT
 10
0.0
 20
0.0
 30
0.0
  9
$UCSORGFRONT
 10
0.0
 20
0.0
 30
0.0
  9
$UCSORGBACK
 10
0.0
 20
0.0
 30
0.0
  9
$PUCSBASE
  2

  9
$PUCSNAME
  2

  9
$PUCSORG
 10
0.0
 20
0.0
 30
0.0
  9
$PUCSXDIR
 10
1.0
 20
0.0
 30
0.0
  9
$PUCSYDIR
 10
0.0
 20
1.0
 30
0.0
  9
$PUCSORTHOREF
  2

  9
$PUCSORTHOVIEW
 70
     0
  9
$PUCSORGTOP
 10
0.0
 20
0.0
 30
0.0
  9
$PUCSORGBOTTOM
 10
0.0
 20
0.0
 30
0.0
  9
$PUCSORGLEFT
 10
0.0
 20
0.0
 30
0.0
  9
$PUCSORGRIGHT
 10
0.0
 20
0.0
 30
0.0
  9
$PUCSORGFRONT
 10
0.0
 20
0.0
 30
0.0
  9
$PUCSORGBACK
 10
0.0
 20
0.0
 30
0.0
  9
$USERI1
 70
     0
  9
$USERI2
 70
     0
  9
$USERI3
 70
     0
  9
$USERI4
 70
     0
  9
$USERI5
 70
     0
  9
$USERR1
 40
0.0
  9
$USERR2
 40
0.0
  9
$USERR3
 40
0.0
  9
$USERR4
 40
0.0
  9
$USERR5
 40
0.0
  9
$WORLDVIEW
 70
     1
  9
$SHADEDGE
 70
     3
  9
$SHADEDIF
 70
    70
  9
$TILEMODE
 70
     1
  9
$MAXACTVP
 70
    64
  9
$PINSBASE
 10
0.0
 20
0.0
 30
0.0
  9
$PLIMCHECK
 70
     0
  9
$PEXTMIN
 10
1.000000000000000E+20
 20
1.000000000000000E+20
 30
1.000000000000000E+20
  9
$PEXTMAX
 10
-1.000000000000000E+20
 20
-1.000000000000000E+20
 30
-1.000000000000000E+20
  9
$PLIMMIN
 10
0.0
 20
0.0
  9
$PLIMMAX
 10
12.0
 20
9.0
  9
$UNITMODE
 70
     0
  9
$VISRETAIN
 70
     1
  9
$PLINEGEN
 70
     0
  9
$PSLTSCALE
 70
     1
  9
$TREEDEPTH
 70
  3020
  9
$CMLSTYLE
  2
Standard
  9
$CMLJUST
 70
     0
  9
$CMLSCALE
 40
1.0
  9
$PROXYGRAPHICS
 70
     1
  9
$MEASUREMENT
 70
     0
  9
$CELWEIGHT
370
    -1
  9
$ENDCAPS
280
     0
  9
$JOINSTYLE
280
     0
  9
$LWDISPLAY
290
     0
  9
$INSUNITS
 70
     6
  9
$HYPERLINKBASE
  1

  9
$STYLESHEET
  1

  9
$XEDIT
290
     1
  9
$CEPSNTYPE
380
     0
  9
$PSTYLEMODE
290
     1
  9
$FINGERPRINTGUID
  2
{D07F9662-F594-F14F-98CF-3D005C339D3F}
  9
$VERSIONGUID
  2
{4B7005EE-B23C-1344-AAC2-1278A1A69666}
  9
$EXTNAMES
290
     1
  9
$PSVPSCALE
 40
0.0
  9
$OLESTARTUP
290
     0
  9
$SORTENTS
280
   127
  9
$INDEXCTL
280
     0
  9
$HIDETEXT
280
     1
  9
$XCLIPFRAME
280
     0
  9
$HALOGAP
280
     0
  9
$OBSCOLOR
 70
   257
  9
$OBSLTYPE
280
     0
  9
$INTERSECTIONDISPLAY
280
     0
  9
$INTERSECTIONCOLOR
 70
   257
  9
$DIMASSOC
280
     1
  9
$PROJECTNAME
  1

  9
$CAMERADISPLAY
290
     0
  9
$LENSLENGTH
 40
50.0
  9
$CAMERAHEIGHT
 40
0.0
  9
$STEPSPERSEC
 40
2.0
  9
$STEPSIZE
 40
6.0
  9
$3DDWFPREC
 40
2.0
  9
$PSOLWIDTH
 40
0.25
  9
$PSOLHEIGHT
 40
4.0
  9
$LOFTANG1
 40
1.570796326794896
  9
$LOFTANG2
 40
1.570796326794896
  9
$LOFTMAG1
 40
0.0
  9
$LOFTMAG2
 40
0.0
  9
$LOFTPARAM
 70
     7
  9
$LOFTNORMALS
280
     1
  9
$LATITUDE
 40
37.795
  9
$LONGITUDE
 40
-122.394
  9
$NORTHDIRECTION
 40
0.0
  9
$TIMEZONE
 70
 -8000
  9
$LIGHTGLYPHDISPLAY
280
     1
  9
$TILEMODELIGHTSYNCH
280
     1
  9
$CMATERIAL
347
35
  9
$SOLIDHIST
280
     0
  9
$SHOWHIST
280
     1
  9
$DWFFRAME
280
     2
  9
$DGNFRAME
280
     0
  9
$REALWORLDSCALE
290
     1
  9
$INTERFERECOLOR
 62
     1
  9
$INTERFEREOBJVS
345
59
  9
$INTERFEREVPVS
346
5A
  9
$CSHADOW
280
     0
  9
$SHADOWPLANELOCATION
 40
0.0
  0
ENDSEC
  0
SECTION
  2
CLASSES
  0
CLASS
  1
ACDBDICTIONARYWDFLT
  2
AcDbDictionaryWithDefault
  3
ObjectDBX Classes
 90
        0
 91
        1
280
     0
281
     0
  0
CLASS
  1
VISUALSTYLE
  2
AcDbVisualStyle
  3
ObjectDBX Classes
 90
     4095
 91
        3
280
     0
281
     0
  0
CLASS
  1
TABLESTYLE
  2
AcDbTableStyle
  3
ObjectDBX Classes
 90
     4095
 91
        1
280
     0
281
     0
  0
CLASS
  1
DICTIONARYVAR
  2
AcDbDictionaryVar
  3
ObjectDBX Classes
 90
        0
 91
       10
280
     0
281
     0
  0
CLASS
  1
MATERIAL
  2
AcDbMaterial
  3
ObjectDBX Classes
 90
     1153
 91
        3
280
     0
281
     0
  0
CLASS
  1
SCALE
  2
AcDbScale
  3
ObjectDBX Classes
 90
     1153
 91
       18
280
     0
281
     0
  0
CLASS
  1
MLEADERSTYLE
  2
AcDbMLeaderStyle
  3
ACDB_MLEADERSTYLE_CLASS
 90
     4095
 91
        0
280
     0
281
     0
  0
CLASS
  1
ACDBSECTIONVIEWSTYLE
  2
AcDbSectionViewStyle
  3
ObjectDBX Classes
 90
     1025
 91
        0
280
     0
281
     0
  0
CLASS
  1
ACDBDETAILVIEWSTYLE
  2
AcDbDetailViewStyle
  3
ObjectDBX Classes
 90
     1025
 91
        0
280
     0
281
     0
  0
CLASS
  1
SORTENTSTABLE
  2
AcDbSortentsTable
  3
ObjectDBX Classes
 90
        0
 91
        2
280
     0
281
     0
  0
CLASS
  1
EXACXREFPANELOBJECT
  2
ExAcXREFPanelObject
  3
EXAC_ESW
 90
     1025
 91
        0
280
     1
281
     0
  0
CLASS
  1
NPOCOLLECTION
  2
AcDbImpNonPersistentObjectsCollection
  3
ObjectDBX Classes
 90
     1153
 91
        0
280
     0
281
     0
  0
CLASS
  1
EXACTERMXREFMAP
  2
ExAcTermXrefMap
  3
EXAC_SERVICE
 90
     1025
 91
        0
280
     1
281
     0
  0
CLASS
  1
CELLSTYLEMAP
  2
AcDbCellStyleMap
  3
ObjectDBX Classes
 90
     1152
 91
        1
280
     0
281
     0
  0
ENDSEC
  0
SECTION
  2
TABLES
  0
TABLE
  2
VPORT
  5
2A
330
0
100
AcDbSymbolTable
 70
     1
  0
VPORT
  5
2B
330
2A
100
AcDbSymbolTableRecord
100
AcDbViewportTableRecord
  2
*Active
 70
     0
 10
0.0
 20
0.0
 11
1.0
 21
1.0
 12
840.8523209820851
 22
1532.546811166152
 13
0.0
 23
0.0
 14
0.5
 24
0.5
 15
0.5
 25
0.5
 16
0.0
 26
0.0
 36
1.0
 17
605185.2109375005
 27
959712.843750057
 37
0.0
 40
695.0481112341909
 41
2.254876462938881
 42
50.0
 43
0.0
 44
0.0
 50
0.0
 51
0.0
 71
     0
 72
   100
 73
     1
 74
     3
 75
     0
 76
     0
 77
     0
 78
     0
281
     0
 65
     1
110
0.0
120
0.0
130
0.0
111
1.0
121
0.0
131
0.0
112
0.0
122
1.0
132
0.0
 79
     0
146
0.0
348
2C
 60
     3
 61
     5
292
     1
282
     1
141
0.0
142
0.0
 63
   250
421
  3355443
1001
ACAD_NAV_VCDISPLAY
1070
     3
  0
ENDTAB
  0
TABLE
  2
LTYPE
  5
25
330
0
100
AcDbSymbolTable
 70
     1
  0
LTYPE
  5
26
330
25
100
AcDbSymbolTableRecord
100
AcDbLinetypeTableRecord
  2
ByBlock
 70
     0
  3

 72
    65
 73
     0
 40
0.0
  0
LTYPE
  5
27
330
25
100
AcDbSymbolTableRecord
100
AcDbLinetypeTableRecord
  2
ByLayer
 70
     0
  3

 72
    65
 73
     0
 40
0.0
  0
LTYPE
  5
15
330
25
100
AcDbSymbolTableRecord
100
AcDbLinetypeTableRecord
  2
Continuous
 70
     0
  3
Solid line
 72
    65
 73
     0
 40
0.0
  0
ENDTAB
  0
TABLE
  2
LAYER
  5
1D
102
{ACAD_XDICTIONARY
360
1E
102
}
330
0
100
AcDbSymbolTable
 70
     5
  0
LAYER
  5
6
102
{ACAD_XDICTIONARY
360
7
102
}
330
1D
100
AcDbSymbolTableRecord
100
AcDbLayerTableRecord
  2
0
 70
     1
 62
     7
  6
Continuous
370
    -3
390
9
347
C
348
0
  0
LAYER
  5
73
330
1D
100
AcDbSymbolTableRecord
100
AcDbLayerTableRecord
  2
STRADE
 70
     0
 62
     5
  6
Continuous
370
    -3
390
9
347
C
348
0
1001
AcAecLayerStandard
1000

1000

1001
AcCmTransparency
1071
        0
  0
LAYER
  5
71
330
1D
100
AcDbSymbolTableRecord
100
AcDbLayerTableRecord
  2
SEZIONI
 70
     0
 62
     6
  6
Continuous
370
    -3
390
9
347
C
348
0
1001
AcAecLayerStandard
1000

1000

1001
AcCmTransparency
1071
        0
  0
LAYER
  5
54
330
1D
100
AcDbSymbolTableRecord
100
AcDbLayerTableRecord
  2
PUNTI
 70
     0
 62
    82
  6
Continuous
370
    -3
390
9
347
C
348
0
1001
AcAecLayerStandard
1000

1000

1001
AcCmTransparency
1071
        0
  0
LAYER
  5
77
330
1D
100
AcDbSymbolTableRecord
100
AcDbLayerTableRecord
  2
CASE
 70
     0
 62
     3
  6
Continuous
370
    -3
390
9
347
C
348
0
1001
AcAecLayerStandard
1000

1000

1001
AcCmTransparency
1071
        0
  0
ENDTAB
  0
TABLE
  2
STYLE
  5
22
330
0
100
AcDbSymbolTable
 70
     1
  0
STYLE
  5
23
330
22
100
AcDbSymbolTableRecord
100
AcDbTextStyleTableRecord
  2
Standard
 70
     0
 40
0.0
 41
1.0
 50
0.0
 71
     0
 42
0.2
  3
txt
  4

  0
ENDTAB
  0
TABLE
  2
VIEW
  5
28
330
0
100
AcDbSymbolTable
 70
     0
  0
ENDTAB
  0
TABLE
  2
UCS
  5
29
330
0
100
AcDbSymbolTable
 70
     0
  0
ENDTAB
  0
TABLE
  2
APPID
  5
2F
330
0
100
AcDbSymbolTable
 70
     4
  0
APPID
  5
21
330
2F
100
AcDbSymbolTableRecord
100
AcDbRegAppTableRecord
  2
ACAD
 70
     0
  0
APPID
  5
2E
330
2F
100
AcDbSymbolTableRecord
100
AcDbRegAppTableRecord
  2
ACAD_NAV_VCDISPLAY
 70
     0
  0
APPID
  5
55
330
2F
100
AcDbSymbolTableRecord
100
AcDbRegAppTableRecord
  2
AcAecLayerStandard
 70
     0
  0
APPID
  5
56
330
2F
100
AcDbSymbolTableRecord
100
AcDbRegAppTableRecord
  2
AcCmTransparency
 70
     0
  0
ENDTAB
  0
TABLE
  2
DIMSTYLE
  5
30
330
0
100
AcDbSymbolTable
 70
     1
100
AcDbDimStyleTable
 71
     0
  0
DIMSTYLE
105
5B
330
30
100
AcDbSymbolTableRecord
100
AcDbDimStyleTableRecord
  2
Standard
 70
     0
340
23
  0
ENDTAB
  0
TABLE
  2
BLOCK_RECORD
  5
1
330
0
100
AcDbSymbolTable
 70
     0
  0
BLOCK_RECORD
  5
2
102
{ACAD_XDICTIONARY
360
3
102
}
330
1
100
AcDbSymbolTableRecord
100
AcDbBlockTableRecord
  2
*Model_Space
340
17
 70
     0
280
     1
281
     0
  0
BLOCK_RECORD
  5
19
330
1
100
AcDbSymbolTableRecord
100
AcDbBlockTableRecord
  2
*Paper_Space
340
1C
 70
     0
280
     1
281
     0
  0
ENDTAB
  0
ENDSEC
  0
SECTION
  2
BLOCKS
  0
BLOCK
  5
5
330
2
100
AcDbEntity
  8
0
100
AcDbBlockBegin
  2
*Model_Space
 70
     0
 10
0.0
 20
0.0
 30
0.0
  3
*Model_Space
  1

  0
ENDBLK
  5
16
330
2
100
AcDbEntity
  8
0
100
AcDbBlockEnd
  0
BLOCK
  5
1A
330
19
100
AcDbEntity
 67
     1
  8
0
100
AcDbBlockBegin
  2
*Paper_Space
 70
     0
 10
0.0
 20
0.0
 30
0.0
  3
*Paper_Space
  1

  0
ENDBLK
  5
1B
330
19
100
AcDbEntity
 67
     1
  8
0
100
AcDbBlockEnd
  0
ENDSEC
  0
SECTION
  2
ENTITIES
  0
CIRCLE
  5
6E
330
2
100
AcDbEntity
  8
PUNTI
100
AcDbCircle
 10
606113.1925238516
 20
961153.6312801614
 30
4.0
 40
10.0
  0
CIRCLE
  5
6F
330
2
100
AcDbEntity
  8
PUNTI
100
AcDbCircle
 10
605852.7997960009
 20
961293.4690368476
 30
4.0
 40
10.0
  0
LWPOLYLINE
  5
70
330
2
100
AcDbEntity
  8
SEZIONI
100
AcDbPolyline
 90
        4
 70
     1
 43
14.0
 10
605733.2500000001
 20
961077.5000000002
 10
606193.7344000004
 20
961077.0
 10
606162.25
 20
961531.5000000002
 10
605725.8992999997
 20
961517.3548000008
  0
LWPOLYLINE
  5
72
330
2
100
AcDbEntity
  8
STRADE
100
AcDbPolyline
 90
        7
 70
     0
 43
14.0
 10
605850.8936999999
 20
961057.3288000004
 10
605966.161892295
 20
961097.0535449077
 10
606033.4087961432
 20
961120.2287682537
 10
606067.6219973307
 20
961161.7922180339
 10
606080.9128999999
 20
961207.5894000009
 10
606080.2862999999
 20
961258.2389000005
 10
606055.7699999996
 20
961407.1591999996
  0
LWPOLYLINE
  5
74
330
2
100
AcDbEntity
  8
STRADE
100
AcDbPolyline
 90
        4
 70
     0
 43
14.0
 10
605763.9817714
 20
961350.0002586951
 10
605771.7241693428
 20
961319.0991633437
 10
605850.8936999999
 20
961057.3288000004
 10
605926.8337350662
 20
960829.5351615236
  0
LWPOLYLINE
  5
75
330
2
100
AcDbEntity
  8
STRADE
100
AcDbPolyline
 90
        2
 70
     0
 43
14.0
 10
605769.604703612
 20
961359.5369509177
 10
606451.0720493222
 20
961475.8254835585
  0
LWPOLYLINE
  5
76
330
2
100
AcDbEntity
  8
CASE
100
AcDbPolyline
 90
       12
 70
     1
 43
0.0
 38
10.0
 10
605888.8750000001
 20
961528.1875
 10
605876.1563
 20
961533.1094000005
 10
605878.3280999996
 20
961537.5938000008
 10
605880.2187999999
 20
961536.7030999998
 10
605882.5155999996
 20
961541.5
 10
605890.375
 20
961537.7344000005
 10
605891.2969000004
 20
961539.5469000006
 10
605894.875
 20
961538.7655999995
 10
605893.4687999999
 20
961536.0780999997
 10
605895.8594000004
 20
961534.9530999997
 10
605893.2187000001
 20
961529.9061999992
 10
605890.4375
 20
961531.2655999996
  0
LWPOLYLINE
  5
78
330
2
100
AcDbEntity
  8
CASE
100
AcDbPolyline
 90
        8
 70
     1
 43
0.0
 38
10.0
 10
606166.1094000005
 20
961309.5780999996
 10
606164.3125
 20
961319.8438000008
 10
606174.375
 20
961321.4688000008
 10
606174.0
 20
961323.7813000008
 10
606178.5312000001
 20
961324.6094000004
 10
606179.3905999996
 20
961319.5000000001
 10
606182.6562000001
 20
961320.0313000007
 10
606183.9844000004
 20
961312.5155999997
  0
LWPOLYLINE
  5
79
330
2
100
AcDbEntity
  8
CASE
100
AcDbPolyline
 90
        8
 70
     1
 43
0.0
 38
10.0
 10
606103.7030999996
 20
961202.5155999996
 10
606093.5469000004
 20
961202.5313000009
 10
606093.5312999999
 20
961208.1405999996
 10
606097.2655999997
 20
961208.2030999996
 10
606097.2030999995
 20
961217.1563000009
 10
606101.3280999996
 20
961217.1405999996
 10
606101.3280999996
 20
961214.25
 10
606103.7030999996
 20
961214.2813000009
  0
LWPOLYLINE
  5
7A
330
2
100
AcDbEntity
  8
CASE
100
AcDbPolyline
 90
       18
 70
     1
 43
0.0
 38
10.0
 10
605882.0099999998
 20
961213.8200000003
 10
605877.8499999997
 20
961206.7799999993
 10
605878.7199999997
 20
961203.0700000005
 10
605942.4699999997
 20
961165.6400000008
 10
605946.9199999999
 20
961166.6799999996
 10
605949.2199999997
 20
961169.4700000008
 10
605963.7400000003
 20
961159.42
 10
605951.6200000001
 20
961151.1199999993
 10
605934.3099999995
 20
961150.34
 10
605927.3799999999
 20
961154.75
 10
605923.92
 20
961149.8200000005
 10
605872.9699999997
 20
961179.9000000004
 10
605874.9500000002
 20
961183.2799999993
 10
605865.3099999997
 20
961188.9800000005
 10
605859.3499999997
 20
961201.4100000001
 10
605858.1100000004
 20
961220.5999999996
 10
605861.2199999998
 20
961226.0199999996
 10
605876.3799999999
 20
961217.1199999991
  0
LWPOLYLINE
  5
7B
330
2
100
AcDbEntity
  8
CASE
100
AcDbPolyline
 90
        6
 70
     1
 43
0.0
 38
10.0
 10
606112.125
 20
961273.3438000008
 10
606110.6875
 20
961280.0938000008
 10
606108.7813
 20
961279.7344000005
 10
606106.6719000004
 20
961289.9063000007
 10
606117.5155999996
 20
961292.1875000001
 10
606121.0469000005
 20
961275.2186999994
  0
LWPOLYLINE
  5
7C
330
2
100
AcDbEntity
  8
CASE
100
AcDbPolyline
 90
       18
 70
     1
 43
0.0
 38
10.0
 10
605847.875
 20
961013.8594000005
 10
605844.1719000004
 20
961024.3750000002
 10
605814.5750000002
 20
961048.1709000005
 10
605817.6190999998
 20
961052.2185999993
 10
605827.3905999996
 20
961045.0625
 10
605829.0625
 20
961047.1719000004
 10
605833.7344000005
 20
961043.3594000005
 10
605834.9062000001
 20
961044.9061999993
 10
605839.0937000002
 20
961041.4844000004
 10
605840.2030999996
 20
961042.9063000008
 10
605843.7655999996
 20
961039.9686999993
 10
605842.2812999999
 20
961038.1094000004
 10
605845.4062999999
 20
961035.5469000005
 10
605844.0469000004
 20
961033.8750000002
 10
605849.8125
 20
961029.2030999996
 10
605847.3280999996
 20
961026.1719000005
 10
605850.0469000005
 20
961025.7188000009
 10
605852.8280999996
 20
961015.6405999996
  0
LWPOLYLINE
  5
7D
330
2
100
AcDbEntity
  8
CASE
100
AcDbPolyline
 90
        4
 70
     1
 43
0.0
 38
10.0
 10
605696.8437000001
 20
961050.4686999995
 10
605698.2344000005
 20
961064.2813000008
 10
605710.2813
 20
961062.6719000006
 10
605708.8280999995
 20
961049.0469000005
  0
LWPOLYLINE
  5
7E
330
2
100
AcDbEntity
  8
CASE
100
AcDbPolyline
 90
        4
 70
     1
 43
0.0
 38
10.0
 10
605819.2344000005
 20
961080.0625000001
 10
605816.3125
 20
961081.2500000001
 10
605817.875
 20
961085.1563000009
 10
605820.7969000005
 20
961084.0313000009
  0
LWPOLYLINE
  5
7F
330
2
100
AcDbEntity
  8
CASE
100
AcDbPolyline
 90
        4
 70
     1
 43
0.0
 38
10.0
 10
605757.2344000004
 20
961076.8905999997
 10
605742.8905999996
 20
961078.3750000001
 10
605744.4219000004
 20
961090.3280999997
 10
605758.8280999996
 20
961089.2188000008
  0
LWPOLYLINE
  5
80
330
2
100
AcDbEntity
  8
CASE
100
AcDbPolyline
 90
        5
 70
     1
 43
0.0
 38
10.0
 10
605696.5780999996
 20
961101.2030999996
 10
605695.4219000004
 20
961090.1094000006
 10
605694.8594000004
 20
961086.0155999997
 10
605685.25
 20
961087.7188000008
 10
605687.8125
 20
961102.8125
  0
LWPOLYLINE
  5
81
330
2
100
AcDbEntity
  8
CASE
100
AcDbPolyline
 90
        8
 70
     1
 43
0.0
 38
10.0
 10
605871.2187999999
 20
961075.4844000005
 10
605870.0780999996
 20
961078.9219000004
 10
605862.6719000004
 20
961076.6094000005
 10
605856.2344000004
 20
961098.6719000004
 10
605862.6405999996
 20
961100.6094000005
 10
605861.4375000001
 20
961104.7030999998
 10
605866.5780999996
 20
961106.2655999996
 10
605875.3594000005
 20
961076.7344000004
  0
LWPOLYLINE
  5
82
330
2
100
AcDbEntity
  8
CASE
100
AcDbPolyline
 90
        5
 70
     1
 43
0.0
 38
10.0
 10
606143.7344000005
 20
961469.7030999996
 10
606146.8154999996
 20
961478.0540999994
 10
606152.8240000001
 20
961475.5945999995
 10
606150.5155999996
 20
961469.4375
 10
606149.7030999996
 20
961467.4063000009
  0
LWPOLYLINE
  5
83
330
2
100
AcDbEntity
  8
CASE
100
AcDbPolyline
 90
        4
 70
     1
 43
0.0
 38
10.0
 10
605880.9219000004
 20
961509.5155999997
 10
605879.6719000004
 20
961506.1405999997
 10
605877.0469000005
 20
961507.1563000007
 10
605878.2969000004
 20
961510.5469000006
  0
LWPOLYLINE
  5
84
330
2
100
AcDbEntity
  8
CASE
100
AcDbPolyline
 90
        8
 70
     1
 43
0.0
 38
10.0
 10
606064.125
 20
961492.4063000009
 10
606059.2344000005
 20
961494.2186999993
 10
606062.125
 20
961501.7655999997
 10
606059.3905999996
 20
961502.8280999997
 10
606062.7187000001
 20
961511.4688000009
 10
606080.3125
 20
961504.7344000004
 10
606074.0937999999
 20
961488.6563000007
 10
606069.2030999996
 20
961490.4686999993
  0
LWPOLYLINE
  5
85
330
2
100
AcDbEntity
  8
CASE
100
AcDbPolyline
 90
        4
 70
     1
 43
0.0
 38
10.0
 10
605666.2518999996
 20
961241.8326999993
 10
605654.0155999996
 20
961248.3436999994
 10
605660.3125
 20
961261.75
 10
605672.7901999997
 20
961255.1280000005
  0
LWPOLYLINE
  5
86
330
2
100
AcDbEntity
  8
CASE
100
AcDbPolyline
 90
        4
 70
     1
 43
0.0
 38
10.0
 10
606174.4688
 20
961247.1405999997
 10
606171.7812000001
 20
961261.2344000005
 10
606183.2812999999
 20
961264.5
 10
606186.1094000004
 20
961249.0155999996
  0
LWPOLYLINE
  5
87
330
2
100
AcDbEntity
  8
CASE
100
AcDbPolyline
 90
        6
 70
     1
 43
0.0
 38
10.0
 10
606091.3125
 20
961481.6875000002
 10
606083.5625
 20
961484.8125000001
 10
606087.9219000004
 20
961495.125
 10
606091.5312999999
 20
961493.7030999996
 10
606092.5625
 20
961496.2813000008
 10
606096.9219000004
 20
961494.5155999997
  0
LWPOLYLINE
  5
88
330
2
100
AcDbEntity
  8
CASE
100
AcDbPolyline
 90
        4
 70
     1
 43
0.0
 38
10.0
 10
605978.1875
 20
961475.5000000002
 10
605968.8280999996
 20
961479.8280999997
 10
605976.7344000004
 20
961500.7344000005
 10
605985.9375000001
 20
961497.2969000005
  0
LWPOLYLINE
  5
89
330
2
100
AcDbEntity
  8
CASE
100
AcDbPolyline
 90
      105
 70
     1
 43
0.0
 38
10.0
 10
605716.5242999997
 20
961520.667300001
 10
605718.8367999997
 20
961521.0423000007
 10
605718.7117999998
 20
961521.9173000008
 10
605720.7742999997
 20
961522.2298000009
 10
605721.0867999997
 20
961520.3548000009
 10
605721.3992999997
 20
961520.3548000009
 10
605722.6492999998
 20
961520.4173000009
 10
605723.4617999998
 20
961520.2298000008
 10
605724.2742999997
 20
961519.7923000009
 10
605724.9617999997
 20
961519.1673000008
 10
605725.5242999997
 20
961518.3548000009
 10
605725.8992999997
 20
961517.3548000008
 10
605726.0242999998
 20
961516.4798000009
 10
605725.9617999997
 20
961515.6673000008
 10
605725.6492999997
 20
961514.8548000007
 10
605725.1492999998
 20
961514.1673000008
 10
605724.3367999998
 20
961513.4798000008
 10
605723.6492999997
 20
961513.1673000009
 10
605722.3992999997
 20
961512.9173000008
 10
605722.7742999997
 20
961510.9798000009
 10
605720.9617999998
 20
961510.6673000008
 10
605720.7742999997
 20
961511.6673000009
 10
605712.8992999997
 20
961510.2298000008
 10
605704.9617999997
 20
961508.7923000009
 10
605706.3367999997
 20
961501.4798000009
 10
605701.4617999997
 20
961500.6048000008
 10
605672.3992999997
 20
961495.2923000009
 10
605672.4617999996
 20
961494.7298000009
 10
605670.3367999997
 20
961494.2923000008
 10
605669.9617999997
 20
961496.2923000009
 10
605665.8992999997
 20
961520.2923000008
 10
605666.7117999997
 20
961520.2298000008
 10
605667.2742999997
 20
961520.3548000009
 10
605667.5242999997
 20
961520.6048000009
 10
605667.6492999997
 20
961521.229800001
 10
605667.7742999998
 20
961521.792300001
 10
605668.3367999998
 20
961522.4798000008
 10
605669.0242999997
 20
961523.0423000008
 10
605669.9617999997
 20
961523.4173000009
 10
605670.7117999997
 20
961523.5423000008
 10
605671.3367999996
 20
961523.4173000009
 10
605672.0242999997
 20
961523.1048000008
 10
605672.7117999997
 20
961522.4173000008
 10
605673.2117999997
 20
961521.5423000009
 10
605673.7117999997
 20
961521.5423000009
 10
605673.8992999997
 20
961521.6673000009
 10
605674.1492999996
 20
961523.1673000009
 10
605674.3992999997
 20
961523.7923000009
 10
605674.8367999997
 20
961524.1673000008
 10
605675.4617999997
 20
961524.4798000007
 10
605676.2742999997
 20
961524.604800001
 10
605677.1492999997
 20
961524.4798000007
 10
605677.7742999997
 20
961524.2298000008
 10
605678.3367999997
 20
961523.7298000009
 10
605678.6492999997
 20
961523.2298000009
 10
605678.8367999997
 20
961522.2923000009
 10
605678.9617999997
 20
961522.2298000009
 10
605679.4617999997
 20
961522.1673000007
 10
605679.6492999997
 20
961522.2923000009
 10
605679.8367999998
 20
961523.6673000008
 10
605680.0867999997
 20
961524.1048000008
 10
605680.5867999997
 20
961524.5423000009
 10
605681.3992999997
 20
961524.9173000009
 10
605682.1492999997
 20
961525.1048000009
 10
605682.8992999997
 20
961525.0423000007
 10
605683.5867999997
 20
961524.7923000008
 10
605684.0242999997
 20
961524.3548000009
 10
605684.2742999997
 20
961523.7923000009
 10
605684.4617999997
 20
961522.7298000007
 10
605684.6492999998
 20
961522.7298000007
 10
605685.2117999998
 20
961522.7923000009
 10
605685.3992999997
 20
961522.9798000008
 10
605685.4617999997
 20
961523.9173000009
 10
605685.7117999997
 20
961524.6673000008
 10
605686.0242999997
 20
961525.0423000007
 10
605686.5867999997
 20
961525.4173000009
 10
605687.3367999997
 20
961525.5423000007
 10
605688.1492999997
 20
961525.5423000007
 10
605688.9617999997
 20
961525.2923000008
 10
605689.4617999997
 20
961524.9173000009
 10
605689.7117999997
 20
961524.4798000007
 10
605689.9617999997
 20
961523.6048000008
 10
605690.2117999997
 20
961523.5423000008
 10
605690.7117999998
 20
961523.6048000008
 10
605690.9617999997
 20
961523.7923000009
 10
605691.0867999997
 20
961524.4798000007
 10
605691.2117999997
 20
961525.2923000008
 10
605691.5242999997
 20
961525.729800001
 10
605692.0867999997
 20
961526.0423000009
 10
605692.8992999997
 20
961526.292300001
 10
605693.5867999997
 20
961526.3548000008
 10
605694.2742999997
 20
961526.1048000007
 10
605694.8367999997
 20
961525.6673000009
 10
605695.5242999997
 20
961524.8548000009
 10
605699.8992999997
 20
961527.2298000007
 10
605700.0242999997
 20
961527.2923000008
 10
605700.8367999998
 20
961527.2298000007
 10
605701.4617999997
 20
961527.0423000009
 10
605702.2742999997
 20
961526.4798000008
 10
605702.7742999998
 20
961525.8548000008
 10
605703.1492999997
 20
961524.9798000007
 10
605703.2117999997
 20
961524.1673000008
 10
605703.1492999997
 20
961522.9798000008
 10
605706.9617999997
 20
961523.6048000008
 10
605707.7117999997
 20
961519.2298000009
  0
LWPOLYLINE
  5
8A
330
2
100
AcDbEntity
  8
CASE
100
AcDbPolyline
 90
        6
 70
     1
 43
0.0
 38
10.0
 10
606079.9530999996
 20
961138.7969000006
 10
606078.0312999999
 20
961130.2188000008
 10
606067.8280999996
 20
961132.7344000004
 10
606070.5937999999
 20
961145.0313000007
 10
606075.5
 20
961143.7969000006
 10
606074.6562000002
 20
961140.0780999996
  0
LWPOLYLINE
  5
8B
330
2
100
AcDbEntity
  8
CASE
100
AcDbPolyline
 90
        5
 70
     1
 43
0.0
 38
10.0
 10
606196.6094000005
 20
961148.1563000008
 10
606192.7655999996
 20
961137.6405999997
 10
606174.9219000004
 20
961143.0313000008
 10
606178.7812000002
 20
961153.5313000008
 10
606193.875
 20
961148.9844000004
  0
LWPOLYLINE
  5
8C
330
2
100
AcDbEntity
  8
CASE
100
AcDbPolyline
 90
       10
 70
     1
 43
0.0
 38
10.0
 10
605801.0780999996
 20
961153.4375000001
 10
605800.5312999999
 20
961155.6563000007
 10
605797.2344000004
 20
961154.7344000005
 10
605796.3905999996
 20
961158.4688000007
 10
605800.0
 20
961159.4686999993
 10
605799.0937000001
 20
961163.3280999996
 10
605806.9530999996
 20
961165.4219000005
 10
605808.2812000002
 20
961159.7811999994
 10
605810.8594000004
 20
961160.4063000008
 10
605811.8280999996
 20
961156.2188000007
  0
LWPOLYLINE
  5
8D
330
2
100
AcDbEntity
  8
CASE
100
AcDbPolyline
 90
       10
 70
     1
 43
0.0
 38
10.0
 10
605838.6719000004
 20
961392.4219000004
 10
605837.9530999996
 20
961396.0938000008
 10
605835.5155999996
 20
961395.7344000006
 10
605834.1094000004
 20
961403.2344000005
 10
605854.1719000004
 20
961407.2655999997
 10
605854.5937999999
 20
961405.3280999996
 10
605858.0469000005
 20
961406.0780999997
 10
605859.5469000004
 20
961411.7969000005
 10
605866.3594000004
 20
961409.7500000001
 10
605860.2344000004
 20
961396.2969000006
  0
LWPOLYLINE
  5
8E
330
2
100
AcDbEntity
  8
CASE
100
AcDbPolyline
 90
        4
 70
     1
 43
0.0
 38
10.0
 10
605988.9687000001
 20
961418.0936999993
 10
605986.5625
 20
961429.5
 10
606001.0
 20
961432.2030999996
 10
606003.4375
 20
961420.7813000007
  0
LWPOLYLINE
  5
8F
330
2
100
AcDbEntity
  8
CASE
100
AcDbPolyline
 90
        4
 70
     1
 43
0.0
 38
10.0
 10
605827.9530999996
 20
961440.1405999997
 10
605817.7030999996
 20
961445.7655999997
 10
605823.4530999996
 20
961455.7344000004
 10
605833.7344000005
 20
961450.1563000008
  0
LWPOLYLINE
  5
90
330
2
100
AcDbEntity
  8
CASE
100
AcDbPolyline
 90
        6
 70
     1
 43
0.0
 38
10.0
 10
605965.9219000004
 20
961438.5625
 10
605957.1250000001
 20
961442.0469000005
 10
605963.375
 20
961457.7969000004
 10
605980.8437
 20
961451.2188000007
 10
605977.2188
 20
961441.8594000005
 10
605968.4844000004
 20
961445.25
  0
LWPOLYLINE
  5
91
330
2
100
AcDbEntity
  8
CASE
100
AcDbPolyline
 90
       14
 70
     1
 43
0.0
 38
10.0
 10
605989.0625000001
 20
961506.4061999994
 10
605978.0780999997
 20
961510.3750000001
 10
605980.9844000004
 20
961518.3280999996
 10
605961.1875
 20
961525.7030999996
 10
605960.1562
 20
961522.9530999997
 10
605958.4219000004
 20
961523.5936999994
 10
605956.5312000001
 20
961518.7969000004
 10
605945.9844000005
 20
961522.5313000008
 10
605956.2030999996
 20
961548.1561999994
 10
605968.4530999996
 20
961543.6563000008
 10
605965.1875
 20
961534.6250000001
 10
605983.9063
 20
961527.6875000001
 10
605986.9844000004
 20
961536.3436999993
 10
605998.0937000001
 20
961532.2344000006
  0
LWPOLYLINE
  5
92
330
2
100
AcDbEntity
  8
CASE
100
AcDbPolyline
 90
        4
 70
     1
 43
0.0
 38
10.0
 10
605834.9375
 20
961429.1875000001
 10
605830.75
 20
961431.3594000005
 10
605833.0780999996
 20
961435.5938000009
 10
605837.2655999995
 20
961433.4219000005
  0
LWPOLYLINE
  5
93
330
2
100
AcDbEntity
  8
CASE
100
AcDbPolyline
 90
       10
 70
     1
 43
0.0
 38
10.0
 10
605863.0274000001
 20
961423.2078000007
 10
605860.7812000001
 20
961423.9219000005
 10
605861.7448000005
 20
961426.9528000001
 10
605862.875
 20
961430.3438000007
 10
605865.7187999999
 20
961429.4688000008
 10
605869.8125
 20
961441.4375
 10
605878.7969000004
 20
961438.1875000001
 10
605875.0937000001
 20
961427.4061999992
 10
605873.75
 20
961427.9375000002
 10
605871.25
 20
961420.5938000008
  0
LWPOLYLINE
  5
94
330
2
100
AcDbEntity
  8
CASE
100
AcDbPolyline
 90
        6
 70
     1
 43
0.0
 38
10.0
 10
605992.8905999996
 20
961438.2969000004
 10
605987.8280999996
 20
961439.7969000005
 10
605990.3280999996
 20
961448.0
 10
606000.1875000001
 20
961445.2344000005
 10
605998.5937999999
 20
961440.1094000005
 10
605993.9062000001
 20
961441.4375
  0
LWPOLYLINE
  5
95
330
2
100
AcDbEntity
  8
CASE
100
AcDbPolyline
 90
        9
 70
     1
 43
0.0
 38
10.0
 10
605678.1492999998
 20
961451.8548000008
 10
605680.5242999997
 20
961439.2298000009
 10
605683.7742999997
 20
961439.8548000009
 10
605684.7117999997
 20
961435.104800001
 10
605680.3992999998
 20
961434.3548000007
 10
605672.3367999997
 20
961432.854800001
 10
605667.4617999997
 20
961445.9798000009
 10
605670.6492999997
 20
961447.3548000008
 10
605670.1492999997
 20
961450.2298000008
  0
LWPOLYLINE
  5
96
330
2
100
AcDbEntity
  8
CASE
100
AcDbPolyline
 90
       16
 70
     1
 43
0.0
 38
10.0
 10
605888.8438
 20
961402.5938000008
 10
605888.0937000001
 20
961406.0
 10
605889.9219000005
 20
961406.3750000001
 10
605889.0155999996
 20
961410.8594000006
 10
605890.5312000001
 20
961411.125
 10
605889.7030999996
 20
961415.0625
 10
605896.5625
 20
961416.4063000009
 10
605906.1562000001
 20
961444.25
 10
605901.7655999996
 20
961445.7344000005
 10
605905.4219000004
 20
961456.2811999993
 10
605924.6562000002
 20
961449.6250000001
 10
605920.8437999999
 20
961438.5
 10
605916.9062999999
 20
961439.7969000005
 10
605909.7655999996
 20
961419.1561999994
 10
605920.375
 20
961419.4686999994
 10
605922.6562999999
 20
961408.4063000007
  0
LWPOLYLINE
  5
97
330
2
100
AcDbEntity
  8
CASE
100
AcDbPolyline
 90
        6
 70
     1
 43
0.0
 38
10.0
 10
606073.4062000001
 20
961438.6094000005
 10
606058.2187000001
 20
961444.1875
 10
606061.75
 20
961454.25
 10
606066.625
 20
961452.4688000008
 10
606071.2812999999
 20
961464.7344000005
 10
606081.125
 20
961461.0780999996
  0
LWPOLYLINE
  5
98
330
2
100
AcDbEntity
  8
CASE
100
AcDbPolyline
 90
        6
 70
     1
 43
0.0
 38
10.0
 10
606132.0
 20
961167.2186999994
 10
606127.6562999999
 20
961168.2969000005
 10
606128.5
 20
961171.1875000001
 10
606120.2655999996
 20
961173.2186999994
 10
606122.4219000004
 20
961180.6094000005
 10
606134.8594000005
 20
961176.9688000009
  0
LWPOLYLINE
  5
99
330
2
100
AcDbEntity
  8
CASE
100
AcDbPolyline
 90
       10
 70
     1
 43
0.0
 38
10.0
 10
605920.0780999996
 20
961459.5155999996
 10
605917.2187999999
 20
961460.5780999996
 10
605918.0937000001
 20
961463.2030999997
 10
605909.0
 20
961466.6094000005
 10
605911.7655999996
 20
961474.75
 10
605916.0155999996
 20
961473.1875000002
 10
605916.7187999999
 20
961475.1875000001
 10
605926.8905999996
 20
961471.3905999996
 10
605923.6094000005
 20
961461.6719000004
 10
605921.0780999996
 20
961462.5938000008
  0
LWPOLYLINE
  5
9A
330
2
100
AcDbEntity
  8
CASE
100
AcDbPolyline
 90
        6
 70
     1
 43
0.0
 38
10.0
 10
606074.0937999999
 20
961488.6563000007
 10
606074.9219000005
 20
961488.3436999994
 10
606066.4530999996
 20
961466.5938000008
 10
606061.9530999996
 20
961468.2969000005
 10
606060.7344000004
 20
961468.7344000005
 10
606069.2030999996
 20
961490.4688000008
  0
LWPOLYLINE
  5
9B
330
2
100
AcDbEntity
  8
CASE
100
AcDbPolyline
 90
        4
 70
     1
 43
0.0
 38
10.0
 10
605950.7655999996
 20
961503.9844000005
 10
605947.4375
 20
961505.1875
 10
605949.2655999996
 20
961509.5469000005
 10
605952.5937
 20
961508.3438000008
  0
LWPOLYLINE
  5
9C
330
2
100
AcDbEntity
  8
CASE
100
AcDbPolyline
 90
        6
 70
     1
 43
0.0
 38
10.0
 10
605770.1405999996
 20
961169.2813000008
 10
605756.6562999999
 20
961170.7344000004
 10
605757.5312
 20
961179.3905999997
 10
605759.6562999999
 20
961179.1250000001
 10
605760.1562000002
 20
961183.9530999997
 10
605771.5155999996
 20
961182.7500000002
  0
LWPOLYLINE
  5
9D
330
2
100
AcDbEntity
  8
CASE
100
AcDbPolyline
 90
        4
 70
     1
 43
0.0
 38
10.0
 10
606206.2344000004
 20
961175.8280999996
 10
606195.8905999996
 20
961178.8280999997
 10
606205.2812000001
 20
961211.4688000009
 10
606215.9062000001
 20
961207.9844000005
  0
LWPOLYLINE
  5
9E
330
2
100
AcDbEntity
  8
CASE
100
AcDbPolyline
 90
        8
 70
     1
 43
0.0
 38
10.0
 10
605722.4869999997
 20
961301.4299000001
 10
605747.9680000003
 20
961293.3994999995
 10
605746.0300000003
 20
961280.2507000008
 10
605740.9150999998
 20
961281.0467000009
 10
605740.8316000003
 20
961283.7603999992
 10
605729.2187999999
 20
961287.1405999996
 10
605722.1405999996
 20
961272.7500000001
 10
605710.7962999996
 20
961278.3356999997
  0
LWPOLYLINE
  5
9F
330
2
100
AcDbEntity
  8
CASE
100
AcDbPolyline
 90
        5
 70
     1
 43
0.0
 38
10.0
 10
605787.4441999999
 20
961299.8337999993
 10
605795.2812000001
 20
961302.0938000008
 10
605798.1058999998
 20
961300.3981
 10
605803.625
 20
961283.6561999992
 10
605793.5502000004
 20
961280.6559999995
  0
LWPOLYLINE
  5
A0
330
2
100
AcDbEntity
  8
CASE
100
AcDbPolyline
 90
       10
 70
     1
 43
0.0
 38
10.0
 10
606132.8810999999
 20
961277.9816999996
 10
606130.2865000004
 20
961293.0535000005
 10
606132.2324000001
 20
961293.3776999994
 10
606131.5027999999
 20
961297.7533
 10
606134.8269999996
 20
961298.4015999996
 10
606133.2052999996
 20
961308.6116000005
 10
606144.3945000004
 20
961310.2322000004
 10
606146.2593000001
 20
961295.5655000007
 10
606139.9349999996
 20
961294.3499999996
 10
606142.2969000004
 20
961278.5780999997
  0
LWPOLYLINE
  5
A1
330
2
100
AcDbEntity
  8
CASE
100
AcDbPolyline
 90
        4
 70
     1
 43
0.0
 38
10.0
 10
606032.625
 20
961296.9686999994
 10
606031.0625
 20
961306.9375000002
 10
606055.0155999996
 20
961310.5
 10
606056.6405999995
 20
961300.375
  0
LWPOLYLINE
  5
A2
330
2
100
AcDbEntity
  8
CASE
100
AcDbPolyline
 90
       17
 70
     1
 43
0.0
 38
10.0
 10
605695.5242999997
 20
961524.8548000009
 10
605694.7742999997
 20
961529.2298000008
 10
605709.0242999997
 20
961531.6048000009
 10
605710.2117999997
 20
961524.4798000007
 10
605715.7117999997
 20
961525.4173000009
 10
605716.5242999997
 20
961520.667300001
 10
605707.7117999997
 20
961519.2298000009
 10
605706.9617999997
 20
961523.6048000008
 10
605703.1492999997
 20
961522.9798000008
 10
605703.2117999997
 20
961524.1673000008
 10
605703.1492999997
 20
961524.9798000007
 10
605702.7742999998
 20
961525.8548000008
 10
605702.2742999997
 20
961526.4798000008
 10
605701.4617999997
 20
961527.0423000009
 10
605700.8367999998
 20
961527.2298000007
 10
605700.0242999997
 20
961527.2923000008
 10
605699.8992999997
 20
961527.2298000007
  0
LWPOLYLINE
  5
A3
330
2
100
AcDbEntity
  8
CASE
100
AcDbPolyline
 90
        4
 70
     1
 43
0.0
 38
10.0
 10
605938.375
 20
961522.375
 10
605929.8125
 20
961525.375
 10
605934.0780999995
 20
961535.875
 10
605942.5780999996
 20
961532.8280999996
  0
LWPOLYLINE
  5
A4
330
2
100
AcDbEntity
  8
CASE
100
AcDbPolyline
 90
        7
 70
     1
 43
0.0
 38
10.0
 10
605657.8125
 20
961300.4375
 10
605655.1719000005
 20
961299.9063000009
 10
605653.4375
 20
961310.6719000006
 10
605651.4375
 20
961310.3436999994
 10
605650.6719000005
 20
961314.7813000008
 10
605665.75
 20
961317.2500000001
 10
605667.9062000001
 20
961302.4530999997
  0
LWPOLYLINE
  5
A5
330
2
100
AcDbEntity
  8
CASE
100
AcDbPolyline
 90
        7
 70
     1
 43
0.0
 38
10.0
 10
605691.6094000005
 20
961293.9844000004
 10
605678.4219000004
 20
961298.7030999995
 10
605675.5469000004
 20
961319.7188000007
 10
605692.8280999996
 20
961322.6094000005
 10
605695.3594000004
 20
961302.0625
 10
605692.7969000004
 20
961299.875
 10
605693.7187999999
 20
961297.5
  0
LWPOLYLINE
  5
A6
330
2
100
AcDbEntity
  8
CASE
100
AcDbPolyline
 90
       20
 70
     1
 43
0.0
 38
10.0
 10
606193.1719000004
 20
961313.9375000001
 10
606191.2969000005
 20
961324.4530999997
 10
606195.75
 20
961325.2500000001
 10
606195.0155999996
 20
961329.3125
 10
606190.7812999999
 20
961328.5155999996
 10
606189.5155999996
 20
961335.6405999997
 10
606200.3437000001
 20
961337.5780999996
 10
606201.0469000004
 20
961333.8594000005
 10
606208.5312000001
 20
961335.3594000004
 10
606208.125
 20
961337.5625000001
 10
606213.8594000004
 20
961338.7030999996
 10
606212.125
 20
961348.1719000006
 10
606223.2030999997
 20
961350.4219000006
 10
606226.2969000005
 20
961333.7655999997
 10
606233.0780999996
 20
961335.1405999997
 10
606236.2030999995
 20
961320.3280999996
 10
606224.4530999996
 20
961317.9844000006
 10
606222.2030999996
 20
961330.2969000004
 10
606204.3280999996
 20
961327.0313000008
 10
606206.3280999996
 20
961316.2969000006
  0
LWPOLYLINE
  5
A7
330
2
100
AcDbEntity
  8
CASE
100
AcDbPolyline
 90
        8
 70
     1
 43
0.0
 38
10.0
 10
606077.1405999997
 20
961337.6875
 10
606075.5
 20
961347.4219000003
 10
606088.9687999999
 20
961349.8125000001
 10
606088.6094000004
 20
961352.0780999998
 10
606098.8594000004
 20
961353.7344000006
 10
606100.4687000001
 20
961344.1875000001
 10
606089.6875
 20
961342.3438000008
 10
606090.0469000005
 20
961340.0155999997
  0
LWPOLYLINE
  5
A8
330
2
100
AcDbEntity
  8
CASE
100
AcDbPolyline
 90
        8
 70
     1
 43
0.0
 38
10.0
 10
605938.0625
 20
961352.875
 10
605935.8905999996
 20
961364.0155999997
 10
605939.1094000004
 20
961364.6250000002
 10
605938.6094000005
 20
961367.4219000005
 10
605945.8438
 20
961368.6405999997
 10
605947.4530999995
 20
961360.1094000005
 10
605940.4844000004
 20
961358.8750000001
 10
605941.5312999999
 20
961353.5155999997
  0
LWPOLYLINE
  5
A9
330
2
100
AcDbEntity
  8
CASE
100
AcDbPolyline
 90
        4
 70
     1
 43
0.0
 38
10.0
 10
605771.2960000001
 20
961031.7760000006
 10
605761.3049999997
 20
961033.1001999993
 10
605762.4115000004
 20
961039.8482000009
 10
605772.3869000003
 20
961038.5248000008
  0
LWPOLYLINE
  5
AA
330
2
100
AcDbEntity
  8
CASE
100
AcDbPolyline
 90
        9
 70
     1
 43
0.0
 38
10.0
 10
605964.9688
 20
961355.7344000005
 10
605964.2655999996
 20
961359.8905999996
 10
605957.1562000002
 20
961358.8594000006
 10
605955.6405999996
 20
961367.5313000008
 10
605961.4062000001
 20
961368.3905999996
 10
605961.0155999996
 20
961370.7030999997
 10
605966.2030999996
 20
961371.5
 10
605968.0469000005
 20
961360.6094000004
 10
605968.7812000001
 20
961356.3436999994
  0
LWPOLYLINE
  5
AB
330
2
100
AcDbEntity
  8
CASE
100
AcDbPolyline
 90
        4
 70
     1
 43
0.0
 38
10.0
 10
606006.6562000001
 20
961364.0469000005
 10
606004.3750000001
 20
961377.7811999995
 10
606018.25
 20
961380.0313000007
 10
606020.5155999996
 20
961366.3125000002
  0
LWPOLYLINE
  5
AC
330
2
100
AcDbEntity
  8
CASE
100
AcDbPolyline
 90
        9
 70
     1
 43
0.0
 38
10.0
 10
605688.5891000004
 20
961379.3142000009
 10
605689.9587000003
 20
961370.9461000006
 10
605675.0148
 20
961369.1085000001
 10
605672.6697000005
 20
961370.4959999992
 10
605670.4786
 20
961375.2752000001
 10
605680.6505000005
 20
961380.2153999992
 10
605684.3646
 20
961381.3406000009
 10
605684.8897000003
 20
961383.6147000007
 10
605687.8600000004
 20
961384.1075999999
  0
LWPOLYLINE
  5
AD
330
2
100
AcDbEntity
  8
CASE
100
AcDbPolyline
 90
        8
 70
     1
 43
0.0
 38
10.0
 10
606072.3280999996
 20
961367.1250000001
 10
606069.3437999999
 20
961386.8750000001
 10
606083.1562999999
 20
961388.9219000006
 10
606084.4844000005
 20
961380.9844000005
 10
606078.0469000004
 20
961380.0625000001
 10
606079.0155999995
 20
961373.6875
 10
606081.5625
 20
961374.0313000008
 10
606082.3594000004
 20
961368.6405999997
  0
LWPOLYLINE
  5
AE
330
2
100
AcDbEntity
  8
CASE
100
AcDbPolyline
 90
        6
 70
     1
 43
0.0
 38
10.0
 10
606151.375
 20
961392.7344000005
 10
606150.25
 20
961401.5625
 10
606155.3594000004
 20
961402.3125000001
 10
606155.1405999995
 20
961404.1094000006
 10
606162.0155999996
 20
961404.9061999994
 10
606163.5
 20
961394.5155999997
  0
LWPOLYLINE
  5
AF
330
2
100
AcDbEntity
  8
CASE
100
AcDbPolyline
 90
        4
 70
     1
 43
0.0
 38
10.0
 10
606159.8280999996
 20
961179.5
 10
606161.2812999999
 20
961184.0469000005
 10
606171.7030999997
 20
961181.5936999994
 10
606170.25
 20
961177.0313000008
  0
LWPOLYLINE
  5
B0
330
2
100
AcDbEntity
  8
CASE
100
AcDbPolyline
 90
        8
 70
     1
 43
0.0
 38
10.0
 10
606099.1094000005
 20
961168.0
 10
606086.6405999996
 20
961172.1875
 10
606090.3594000005
 20
961185.1094000005
 10
606094.8280999996
 20
961183.6094000004
 10
606094.4530999996
 20
961182.2813000008
 10
606097.9062999999
 20
961181.1405999997
 10
606098.4219000005
 20
961182.7188000008
 10
606103.2030999996
 20
961181.1719000005
  0
LWPOLYLINE
  5
B1
330
2
100
AcDbEntity
  8
CASE
100
AcDbPolyline
 90
        6
 70
     1
 43
0.0
 38
10.0
 10
605771.4375
 20
961193.1563000007
 10
605758.9688
 20
961194.5625
 10
605761.0780999996
 20
961215.4530999996
 10
605770.4375
 20
961214.3905999996
 10
605768.7813
 20
961198.7500000001
 10
605772.0312999999
 20
961198.3436999993
  0
LWPOLYLINE
  5
B2
330
2
100
AcDbEntity
  8
CASE
100
AcDbPolyline
 90
        6
 70
     1
 43
0.0
 38
10.0
 10
605783.375
 20
961195.1719000005
 10
605781.75
 20
961200.7186999994
 10
605785.8438
 20
961202.0155999996
 10
605782.3125
 20
961213.8594000006
 10
605791.9219000004
 20
961216.7813000008
 10
605797.1094000005
 20
961199.5
  0
LWPOLYLINE
  5
B3
330
2
100
AcDbEntity
  8
CASE
100
AcDbPolyline
 90
       10
 70
     1
 43
0.0
 38
10.0
 10
605825.4062999999
 20
961192.4219000005
 10
605821.9219000005
 20
961203.5311999994
 10
605822.9687999999
 20
961203.8438000007
 10
605818.1875
 20
961218.9688000007
 10
605834.9219000004
 20
961224.1719000005
 10
605837.9219000005
 20
961214.8125
 10
605830.2969000004
 20
961212.4375
 10
605832.25
 20
961206.2655999997
 10
605840.0625
 20
961208.7030999996
 10
605843.4530999996
 20
961198.0469000005
  0
LWPOLYLINE
  5
B4
330
2
100
AcDbEntity
  8
CASE
100
AcDbPolyline
 90
        6
 70
     1
 43
0.0
 38
10.0
 10
606057.7655999995
 20
961231.4063000008
 10
606056.4375000001
 20
961245.3594000005
 10
606068.4062000001
 20
961246.4219000004
 10
606069.4219000005
 20
961235.6719000004
 10
606064.6094000005
 20
961235.1561999993
 10
606064.8594000005
 20
961232.0780999997
  0
LWPOLYLINE
  5
B5
330
2
100
AcDbEntity
  8
CASE
100
AcDbPolyline
 90
        4
 70
     1
 43
0.0
 38
10.0
 10
605701.9543000003
 20
961260.8690000008
 10
605710.6021999996
 20
961256.7555
 10
605702.3053000001
 20
961240.0991999994
 10
605693.6551000001
 20
961244.4747000001
  0
LWPOLYLINE
  5
B6
330
2
100
AcDbEntity
  8
CASE
100
AcDbPolyline
 90
        8
 70
     1
 43
0.0
 38
10.0
 10
605812.375
 20
961246.3125000001
 10
605809.6719000005
 20
961254.8750000001
 10
605811.5469000004
 20
961255.5
 10
605810.4219000004
 20
961259.1094000006
 10
605816.8125
 20
961261.0780999997
 10
605817.125
 20
961259.9219000005
 10
605821.5469000004
 20
961261.3594000004
 10
605824.9688
 20
961250.4219000005
  0
LWPOLYLINE
  5
B7
330
2
100
AcDbEntity
  8
CASE
100
AcDbPolyline
 90
        5
 70
     1
 43
0.0
 38
10.0
 10
606020.2699999996
 20
961254.7899999993
 10
606026.7599999998
 20
961251.09
 10
605975.2800000003
 20
961163.9700000008
 10
605953.6299999999
 20
961176.6700000002
 10
606004.96
 20
961263.51
  0
LWPOLYLINE
  5
B8
330
2
100
AcDbEntity
  8
CASE
100
AcDbPolyline
 90
       28
 70
     1
 43
0.0
 38
10.0
 10
605934.5469000004
 20
961097.2969000005
 10
605923.0780999996
 20
961130.8280999997
 10
605937.2344000005
 20
961135.7969000005
 10
605943.4063
 20
961117.5780999996
 10
605960.875
 20
961123.5155999997
 10
605961.9530999996
 20
961120.4061999993
 10
605974.4687999999
 20
961124.625
 10
605968.0625
 20
961143.6094000005
 10
605983.6094000004
 20
961148.8594000006
 10
605985.5155999996
 20
961143.2655999998
 10
606006.125
 20
961150.2344000005
 10
606003.7499999999
 20
961157.6561999994
 10
606012.2655999996
 20
961160.4375
 10
606013.2812999999
 20
961157.3280999998
 10
606018.8905999996
 20
961159.2030999997
 10
606024.4687
 20
961141.7655999996
 10
606017.4688
 20
961139.4375000001
 10
606016.2030999996
 20
961143.2030999997
 10
605986.2188
 20
961133.1094000005
 10
605987.7969000004
 20
961128.4530999997
 10
606006.6405999996
 20
961134.8280999997
 10
606009.2969000004
 20
961126.9375
 10
605990.4219000005
 20
961120.5311999993
 10
605991.5937000001
 20
961117.1094000006
 10
605985.2812000001
 20
961114.9375000001
 10
605984.0469000004
 20
961118.5469000005
 10
605954.1562999999
 20
961108.3905999997
 10
605955.4530999996
 20
961104.4375
  0
LWPOLYLINE
  5
B9
330
2
100
AcDbEntity
  8
CASE
100
AcDbPolyline
 90
       20
 70
     1
 43
0.0
 38
10.0
 10
605719.8125
 20
961150.4530999996
 10
605709.6405999995
 20
961151.7655999996
 10
605709.9219000004
 20
961154.1875
 10
605705.625
 20
961154.8280999997
 10
605706.1875
 20
961159.1563000008
 10
605702.25
 20
961159.7811999994
 10
605702.0937999999
 20
961158.0936999994
 10
605696.8125
 20
961158.8594000004
 10
605697.0780999996
 20
961162.1094000005
 10
605693.9687000001
 20
961162.5155999997
 10
605694.3280999996
 20
961166.9375000001
 10
605691.1562999999
 20
961167.3438000009
 10
605691.6405999996
 20
961173.0624999999
 10
605711.7030999997
 20
961170.3594000005
 10
605712.3594000004
 20
961176.0625000002
 10
605723.3437999999
 20
961175.1094000005
 10
605722.7969000004
 20
961171.3280999996
 10
605725.625
 20
961171.0625
 10
605723.4688
 20
961154.6563000008
 10
605720.375
 20
961154.9219000004
  0
LWPOLYLINE
  5
BA
330
2
100
AcDbEntity
  8
CASE
100
AcDbPolyline
 90
        4
 70
     1
 43
0.0
 38
10.0
 10
606170.25
 20
961177.0311999993
 10
606160.75
 20
961148.0780999997
 10
606150.7344000005
 20
961150.8594000005
 10
606159.8280999996
 20
961179.5
  0
LWPOLYLINE
  5
BB
330
2
100
AcDbEntity
  8
CASE
100
AcDbPolyline
 90
       10
 70
     1
 43
0.0
 38
10.0
 10
605843.5155999996
 20
961173.6719000006
 10
605840.2655999996
 20
961183.0313000007
 10
605837.4219000004
 20
961182.0155999996
 10
605836.1405999995
 20
961185.7811999994
 10
605851.4844000004
 20
961191.1875
 10
605852.6563
 20
961187.8905999997
 10
605849.0155999996
 20
961186.625
 10
605851.0625
 20
961180.7344000006
 10
605854.4687000001
 20
961181.9219000004
 10
605855.8594000004
 20
961178.0313000009
  0
LWPOLYLINE
  5
BC
330
2
100
AcDbEntity
  8
CASE
100
AcDbPolyline
 90
        8
 70
     1
 43
0.0
 38
10.0
 10
605824.3905999996
 20
961421.0938000008
 10
605813.1719000004
 20
961427.5938000007
 10
605815.8905999996
 20
961432.0
 10
605818.0155999996
 20
961430.6094000005
 10
605821.0313
 20
961436.3438000008
 10
605826.0469000004
 20
961433.9688000008
 10
605823.8438
 20
961429.7500000001
 10
605827.8280999996
 20
961427.8125
  0
LWPOLYLINE
  5
BD
330
2
100
AcDbEntity
  8
CASE
100
AcDbPolyline
 90
        8
 70
     1
 43
0.0
 38
10.0
 10
606049.1562999999
 20
961448.8750000001
 10
606036.6405999996
 20
961453.75
 10
606037.9062999999
 20
961456.9063000008
 10
606035.6094000004
 20
961457.8436999993
 10
606037.0625
 20
961461.5
 10
606039.75
 20
961460.4219000005
 10
606041.4219000005
 20
961464.8125000002
 10
606053.5938
 20
961460.0625000001
  0
LWPOLYLINE
  5
BE
330
2
100
AcDbEntity
  8
CASE
100
AcDbPolyline
 90
        4
 70
     1
 43
0.0
 38
10.0
 10
605976.9063
 20
961359.4219000006
 10
605974.4375000001
 20
961372.7655999996
 10
605990.0780999996
 20
961375.5780999996
 10
605992.4219000005
 20
961362.2813000008
  0
LWPOLYLINE
  5
BF
330
2
100
AcDbEntity
  8
CASE
100
AcDbPolyline
 90
        4
 70
     1
 43
0.0
 38
10.0
 10
606197.5625
 20
961376.0311999994
 10
606196.3905999996
 20
961382.9530999996
 10
606211.2500000001
 20
961385.5780999998
 10
606212.4219000004
 20
961378.5155999996
  0
LWPOLYLINE
  5
C0
330
2
100
AcDbEntity
  8
CASE
100
AcDbPolyline
 90
        4
 70
     1
 43
0.0
 38
10.0
 10
605708.2187999999
 20
961194.6405999995
 10
605706.7812999999
 20
961183.2188000008
 10
605696.1405999996
 20
961184.6094000005
 10
605697.4844000005
 20
961195.7655999995
  0
LWPOLYLINE
  5
C1
330
2
100
AcDbEntity
  8
CASE
100
AcDbPolyline
 90
        4
 70
     1
 43
0.0
 38
10.0
 10
605932.4687000001
 20
961409.9375000002
 10
605929.8280999996
 20
961424.4844000005
 10
605946.3280999995
 20
961426.875
 10
605948.875
 20
961412.3125
  0
LWPOLYLINE
  5
C2
330
2
100
AcDbEntity
  8
CASE
100
AcDbPolyline
 90
        4
 70
     1
 43
0.0
 38
10.0
 10
605715.8594000005
 20
961107.5000000001
 10
605698.0
 20
961111.1563000008
 10
605699.5780999996
 20
961121.1094000005
 10
605717.4530999996
 20
961117.5780999996
  0
LWPOLYLINE
  5
C3
330
2
100
AcDbEntity
  8
CASE
100
AcDbPolyline
 90
        4
 70
     1
 43
0.0
 38
10.0
 10
605806.3125
 20
961111.7030999997
 10
605803.3594000004
 20
961122.0155999996
 10
605814.9219000005
 20
961125.4375000001
 10
605817.9530999996
 20
961115.1405999997
  0
LWPOLYLINE
  5
C4
330
2
100
AcDbEntity
  8
CASE
100
AcDbPolyline
 90
        4
 70
     1
 43
0.0
 38
10.0
 10
605692.1250000001
 20
961117.0780999996
 10
605687.6719000005
 20
961117.7188000008
 10
605688.6719000004
 20
961125.5155999996
 10
605693.0469000004
 20
961124.7500000001
  0
LWPOLYLINE
  5
C5
330
2
100
AcDbEntity
  8
CASE
100
AcDbPolyline
 90
        6
 70
     1
 43
0.0
 38
10.0
 10
605797.2344000004
 20
961132.3750000002
 10
605793.7500000001
 20
961131.3905999997
 10
605793.4375
 20
961131.2655999997
 10
605793.1405999996
 20
961132.2655999996
 10
605792.5313
 20
961134.4686999993
 10
605796.5
 20
961135.6405999996
  0
LWPOLYLINE
  5
C6
330
2
100
AcDbEntity
  8
CASE
100
AcDbPolyline
 90
        6
 70
     1
 43
0.0
 38
10.0
 10
605931.6719000005
 20
961494.5313000008
 10
605922.5937999999
 20
961497.8905999997
 10
605926.5780999997
 20
961507.8280999997
 10
605938.5
 20
961503.4375
 10
605935.8905999996
 20
961496.9844000006
 10
605933.0312000001
 20
961498.0469000006
  0
LWPOLYLINE
  5
C7
330
2
100
AcDbEntity
  8
CASE
100
AcDbPolyline
 90
       11
 70
     1
 43
0.0
 38
10.0
 10
605831.4687999999
 20
961068.0938000008
 10
605820.25
 20
961069.7030999997
 10
605818.0469000005
 20
961074.3594000005
 10
605819.2969000004
 20
961078.9530999996
 10
605823.0780999996
 20
961078.0155999997
 10
605824.0780999996
 20
961079.9375
 10
605822.8438
 20
961083.4686999993
 10
605827.875
 20
961085.3280999997
 10
605828.875
 20
961082.7186999992
 10
605831.2969000004
 20
961083.5780999996
 10
605835.1405999996
 20
961073.0469000005
  0
LWPOLYLINE
  5
C8
330
2
100
AcDbEntity
  8
CASE
100
AcDbPolyline
 90
        4
 70
     1
 43
0.0
 38
10.0
 10
605677.2500000001
 20
961088.125
 10
605658.7813
 20
961090.5311999992
 10
605659.9687000002
 20
961101.1561999994
 10
605678.5625
 20
961098.7344000005
  0
LWPOLYLINE
  5
C9
330
2
100
AcDbEntity
  8
CASE
100
AcDbPolyline
 90
        4
 70
     1
 43
0.0
 38
10.0
 10
606164.3905999996
 20
961102.9844000006
 10
606156.5780999996
 20
961105.3594000004
 10
606161.4844000004
 20
961124.0
 10
606169.3125
 20
961121.6094000006
  0
LWPOLYLINE
  5
CA
330
2
100
AcDbEntity
  8
CASE
100
AcDbPolyline
 90
        7
 70
     1
 43
0.0
 38
10.0
 10
605791.2344000005
 20
961131.7186999993
 10
605793.1405999996
 20
961132.2655999996
 10
605793.4375
 20
961131.2655999997
 10
605793.7500000001
 20
961131.3905999997
 10
605794.7187999999
 20
961127.8750000002
 10
605788.5469000004
 20
961126.0780999996
 10
605787.3280999996
 20
961130.6094000006
  0
LWPOLYLINE
  5
CB
330
2
100
AcDbEntity
  8
CASE
100
AcDbPolyline
 90
        4
 70
     1
 43
0.0
 38
10.0
 10
606133.0780999996
 20
961121.7344000005
 10
606122.3437999999
 20
961123.7655999996
 10
606124.5155999996
 20
961133.5469000005
 10
606135.2344000004
 20
961131.7344000006
  0
LWPOLYLINE
  5
CC
330
2
100
AcDbEntity
  8
CASE
100
AcDbPolyline
 90
        5
 70
     1
 43
0.0
 38
10.0
 10
606066.4530999996
 20
961466.5938000008
 10
606064.2187999999
 20
961460.9530999997
 10
606058.5625
 20
961463.0780999997
 10
606060.7344000004
 20
961468.7344000005
 10
606061.9530999996
 20
961468.2969000005
  0
LWPOLYLINE
  5
CD
330
2
100
AcDbEntity
  8
CASE
100
AcDbPolyline
 90
        4
 70
     1
 43
0.0
 38
10.0
 10
606000.6562000001
 20
961466.5155999997
 10
605990.9219000005
 20
961469.9688000008
 10
605995.875
 20
961483.7813000008
 10
606005.6875
 20
961479.7500000001
  0
LWPOLYLINE
  5
CE
330
2
100
AcDbEntity
  8
CASE
100
AcDbPolyline
 90
        4
 70
     1
 43
0.0
 38
10.0
 10
606126.2187000001
 20
961470.2030999996
 10
606111.1405999996
 20
961475.9063000008
 10
606114.6719000004
 20
961485.1563000009
 10
606129.7969000005
 20
961479.4375000002
  0
LWPOLYLINE
  5
CF
330
2
100
AcDbEntity
  8
CASE
100
AcDbPolyline
 90
        7
 70
     1
 43
0.0
 38
10.0
 10
605863.9375000001
 20
961337.9219000005
 10
605863.2812000001
 20
961342.7655999997
 10
605857.5000000001
 20
961341.8438000008
 10
605856.1875
 20
961355.1094000005
 10
605873.25
 20
961357.8280999997
 10
605874.0937999999
 20
961348.7813000007
 10
605875.0625
 20
961339.6875000001
  0
LWPOLYLINE
  5
D0
330
2
100
AcDbEntity
  8
CASE
100
AcDbPolyline
 90
        6
 70
     1
 43
0.0
 38
10.0
 10
605818.7030999996
 20
961228.9375000001
 10
605817.4687000001
 20
961233.0
 10
605814.9063
 20
961232.2655999996
 10
605813.7655999995
 20
961236.2344000004
 10
605827.125
 20
961240.0625000001
 10
605829.4844000005
 20
961231.9530999997
  0
LWPOLYLINE
  5
D1
330
2
100
AcDbEntity
  8
CASE
100
AcDbPolyline
 90
        4
 70
     1
 43
0.0
 38
10.0
 10
605778.2559000003
 20
961272.4872999992
 10
605781.9814
 20
961259.6677
 10
605764.0780999996
 20
961258.7188000007
 10
605764.5
 20
961271.9375000001
  0
LWPOLYLINE
  5
D2
330
2
100
AcDbEntity
  8
CASE
100
AcDbPolyline
 90
        8
 70
     1
 43
0.0
 38
10.0
 10
606196.7812000001
 20
961288.8750000001
 10
606194.1562999999
 20
961301.2500000001
 10
606199.6249999999
 20
961302.3594000004
 10
606200.0937000001
 20
961300.0780999996
 10
606207.8125
 20
961301.6719000006
 10
606207.3594000004
 20
961303.8750000001
 10
606212.1094000005
 20
961304.9219000004
 10
606214.6875
 20
961292.5938000008
  0
LWPOLYLINE
  5
D3
330
2
100
AcDbEntity
  8
CASE
100
AcDbPolyline
 90
        6
 70
     1
 43
0.0
 38
10.0
 10
605776.1717999997
 20
961038.0943999999
 10
605786.3460999997
 20
961036.6409000008
 10
605787.7133999998
 20
961046.2120999992
 10
605801.1654000003
 20
961044.2903000006
 10
605797.3631999995
 20
961017.6747999993
 10
605773.7368999999
 20
961021.0499000009
  0
LWPOLYLINE
  5
D4
330
2
100
AcDbEntity
  8
CASE
100
AcDbPolyline
 90
       35
 70
     1
 43
0.0
 38
10.0
 10
605712.8992999997
 20
961510.2298000008
 10
605718.8367999997
 20
961477.604800001
 10
605721.3367999997
 20
961478.0423000008
 10
605722.1492999997
 20
961473.5423000009
 10
605719.4617999997
 20
961473.0423000009
 10
605724.9617999997
 20
961442.7923000008
 10
605697.4617999998
 20
961437.7923000008
 10
605696.2742999997
 20
961442.2298000008
 10
605711.4617999997
 20
961445.1048000008
 10
605707.4617999997
 20
961466.2923000009
 10
605703.5242999997
 20
961465.5423000009
 10
605702.7117999997
 20
961469.729800001
 10
605681.5867999997
 20
961465.7298000009
 10
605681.9617999997
 20
961463.7923000008
 10
605679.3367999997
 20
961463.2923000009
 10
605681.3992999997
 20
961452.4798000008
 10
605678.1492999998
 20
961451.8548000008
 10
605670.1492999997
 20
961450.2298000008
 10
605669.2117999997
 20
961454.8548000009
 10
605668.0242999997
 20
961454.6673000008
 10
605667.6492999997
 20
961456.8548000008
 10
605668.4617999997
 20
961457.0423000008
 10
605665.9617999997
 20
961469.9173000008
 10
605662.3367999997
 20
961488.854800001
 10
605658.1492999997
 20
961488.0423000009
 10
605657.5242999997
 20
961491.4173000009
 10
605657.0867999997
 20
961493.7923000008
 10
605669.9617999997
 20
961496.2923000009
 10
605670.3367999997
 20
961494.2923000008
 10
605672.4617999996
 20
961494.7298000009
 10
605674.5867999997
 20
961483.0423000007
 10
605703.6492999998
 20
961488.292300001
 10
605701.4617999997
 20
961500.6048000008
 10
605706.3367999997
 20
961501.4798000009
 10
605704.9617999997
 20
961508.7923000009
  0
LWPOLYLINE
  5
D5
330
2
100
AcDbEntity
  8
CASE
100
AcDbPolyline
 90
        4
 70
     1
 43
0.0
 38
10.0
 10
606109.2344000004
 20
961532.9688000009
 10
606092.875
 20
961538.1405999997
 10
606096.6563
 20
961550.0625000001
 10
606113.2030999996
 20
961544.9688000008
  0
LWPOLYLINE
  5
D6
330
2
100
AcDbEntity
  8
CASE
100
AcDbPolyline
 90
        4
 70
     1
 43
0.0
 38
10.0
 10
605912.1113
 20
961069.4923000002
 10
605926.7745000003
 20
961073.8541999999
 10
605934.5378
 20
961047.756100001
 10
605919.8745999996
 20
961043.3944000007
  0
LWPOLYLINE
  5
D7
330
2
100
AcDbEntity
  8
CASE
100
AcDbPolyline
 90
       10
 70
     1
 43
0.0
 38
10.0
 10
606150.5155999996
 20
961469.4375
 10
606155.0625
 20
961467.6561999992
 10
606152.4062000001
 20
961460.7655999996
 10
606151.0937000001
 20
961461.2499999999
 10
606149.1875
 20
961456.4219000005
 10
606147.5155999996
 20
961457.0625
 10
606146.1562999999
 20
961453.6563000008
 10
606138.5469000004
 20
961456.5
 10
606143.7344000005
 20
961469.7030999996
 10
606149.7030999996
 20
961467.4061999993
  0
LWPOLYLINE
  5
D8
330
2
100
AcDbEntity
  8
CASE
100
AcDbPolyline
 90
        4
 70
     1
 43
0.0
 38
10.0
 10
605845.0155999996
 20
961455.5000000001
 10
605830.4219000004
 20
961462.7655999996
 10
605835.9375000001
 20
961472.75
 10
605850.2187999999
 20
961464.6094000004
  0
LWPOLYLINE
  5
D9
330
2
100
AcDbEntity
  8
CASE
100
AcDbPolyline
 90
        6
 70
     1
 43
0.0
 38
10.0
 10
605958.8125000001
 20
961483.8280999997
 10
605950.625
 20
961487.0
 10
605951.2187999999
 20
961488.2811999994
 10
605947.0938
 20
961489.8594000004
 10
605950.3594000005
 20
961497.7655999997
 10
605962.7188
 20
961493.0780999998
  0
LWPOLYLINE
  5
DA
330
2
100
AcDbEntity
  8
CASE
100
AcDbPolyline
 90
        4
 70
     1
 43
0.0
 38
10.0
 10
606148.2969000004
 20
961092.0
 10
606130.1562999999
 20
961097.3594000006
 10
606131.1875000001
 20
961101.7344000005
 10
606149.2813
 20
961097.2030999995
  0
LWPOLYLINE
  5
DB
330
2
100
AcDbEntity
  8
CASE
100
AcDbPolyline
 90
        4
 70
     1
 43
0.0
 38
10.0
 10
605802.3594000005
 20
961099.8594000005
 10
605800.5469000004
 20
961106.0155999997
 10
605805.9375
 20
961107.6094000004
 10
605807.6719000005
 20
961101.4530999996
  0
LWPOLYLINE
  5
DC
330
2
100
AcDbEntity
  8
CASE
100
AcDbPolyline
 90
        4
 70
     1
 43
0.0
 38
10.0
 10
606204.2187999999
 20
961088.7655999995
 10
606210.2812999999
 20
961109.2969000004
 10
606220.2655999996
 20
961106.2969000006
 10
606214.2030999996
 20
961085.8594000005
  0
LWPOLYLINE
  5
DD
330
2
100
AcDbEntity
  8
CASE
100
AcDbPolyline
 90
        8
 70
     1
 43
0.0
 38
10.0
 10
605724.0469000004
 20
961344.7655999998
 10
605723.4530999996
 20
961348.0155999996
 10
605719.5313
 20
961347.4688000009
 10
605718.2812999999
 20
961356.3436999994
 10
605722.0
 20
961356.8594000005
 10
605721.5780999996
 20
961360.1250000002
 10
605730.625
 20
961361.5313000009
 10
605732.6875000001
 20
961346.3594000005
  0
LWPOLYLINE
  5
DE
330
2
100
AcDbEntity
  8
CASE
100
AcDbPolyline
 90
        4
 70
     1
 43
0.0
 38
10.0
 10
605878.7500000001
 20
961102.9844000006
 10
605875.6094000004
 20
961112.5936999993
 10
605885.9687000001
 20
961116.0938000008
 10
605889.0469000004
 20
961106.4844000004
  0
LWPOLYLINE
  5
DF
330
2
100
AcDbEntity
  8
CASE
100
AcDbPolyline
 90
        6
 70
     1
 43
0.0
 38
10.0
 10
605850.5312000001
 20
961113.6875000001
 10
605848.4219000004
 20
961120.6094000005
 10
605851.0
 20
961121.4375000001
 10
605849.7969000004
 20
961125.1405999997
 10
605865.6875
 20
961130.3436999994
 10
605869.0
 20
961119.7030999996
  0
LWPOLYLINE
  5
E0
330
2
100
AcDbEntity
  8
CASE
100
AcDbPolyline
 90
        8
 70
     1
 43
0.0
 38
10.0
 10
605844.4375
 20
961132.8594000005
 10
605842.3280999996
 20
961139.7813000008
 10
605844.9063
 20
961140.6094000004
 10
605843.8905999996
 20
961143.9530999996
 10
605849.4687000001
 20
961145.7030999996
 10
605850.5625
 20
961142.2344000004
 10
605854.8280999996
 20
961143.5469000005
 10
605856.875
 20
961136.7655999996
  0
LWPOLYLINE
  5
E1
330
2
100
AcDbEntity
  8
CASE
100
AcDbPolyline
 90
       18
 70
     1
 43
0.0
 38
10.0
 10
605684.7715999996
 20
961394.5977
 10
605684.7214000003
 20
961397.761
 10
605696.2702
 20
961400.4683999995
 10
605696.9839000004
 20
961396.8734000009
 10
605708.3146000003
 20
961398.5193000008
 10
605713.2193999997
 20
961394.9460000005
 10
605706.1453
 20
961381.9395000005
 10
605702.9402999999
 20
961375.5940000006
 10
605699.6217999998
 20
961370.9521999993
 10
605696.0455999997
 20
961369.4893999994
 10
605690.7120000003
 20
961369.0983000008
 10
605689.9587000003
 20
961370.9461000006
 10
605688.5891000004
 20
961379.3142000009
 10
605691.6979
 20
961379.7359999997
 10
605694.4748
 20
961384.2706000006
 10
605695.2188999997
 20
961389.0373
 10
605686.4216000001
 20
961388.0315000006
 10
605685.2399000004
 20
961389.6057999994
  0
LWPOLYLINE
  5
E2
330
2
100
AcDbEntity
  8
CASE
100
AcDbPolyline
 90
        4
 70
     1
 43
0.0
 38
10.0
 10
605960.0
 20
961414.7500000001
 10
605957.2344000004
 20
961428.5780999997
 10
605973.9844000004
 20
961431.25
 10
605976.6563
 20
961417.5155999996
  0
LWPOLYLINE
  5
E3
330
2
100
AcDbEntity
  8
CASE
100
AcDbPolyline
 90
        4
 70
     1
 43
0.0
 38
10.0
 10
605861.9530999996
 20
961495.2188000009
 10
605850.2187999999
 20
961500.1405999997
 10
605855.5625
 20
961510.6875000002
 10
605867.2655999996
 20
961506.1563000008
  0
LWPOLYLINE
  5
E4
330
2
100
AcDbEntity
  8
CASE
100
AcDbPolyline
 90
        6
 70
     1
 43
0.0
 38
10.0
 10
606193.4062999999
 20
961495.7969000005
 10
606186.0469000005
 20
961498.5938000009
 10
606187.6875
 20
961502.5311999993
 10
606185.6562000001
 20
961503.2969000004
 10
606188.9530999996
 20
961511.0313000009
 10
606198.375
 20
961507.3280999997
  0
LWPOLYLINE
  5
E5
330
2
100
AcDbEntity
  8
CASE
100
AcDbPolyline
 90
        4
 70
     1
 43
0.0
 38
10.0
 10
606018.1563
 20
961510.6875000002
 10
606012.8905999996
 20
961512.4688000008
 10
606014.1875
 20
961516.1875000001
 10
606019.4687999999
 20
961514.3280999996
  0
LWPOLYLINE
  5
E6
330
2
100
AcDbEntity
  8
CASE
100
AcDbPolyline
 90
       10
 70
     1
 43
0.0
 38
10.0
 10
606137.3750000001
 20
961513.4219000005
 10
606128.9687999999
 20
961516.3905999997
 10
606132.625
 20
961527.4375
 10
606134.2188
 20
961526.8594000005
 10
606135.5937999999
 20
961530.8280999997
 10
606143.4844000004
 20
961528.0155999997
 10
606142.7344000005
 20
961525.7969000005
 10
606146.5312999999
 20
961524.4375000001
 10
606143.5313
 20
961515.5155999996
 10
606138.6719000005
 20
961517.2344000004
  0
LWPOLYLINE
  5
E7
330
2
100
AcDbEntity
  8
CASE
100
AcDbPolyline
 90
        6
 70
     1
 43
0.0
 38
10.0
 10
606025.2344000005
 20
961457.8438000009
 10
606010.6875
 20
961462.3749999999
 10
606015.75
 20
961477.9375000001
 10
606021.7969000004
 20
961476.0313000008
 10
606020.9062999999
 20
961473.1875000002
 10
606029.375
 20
961470.4061999994
  0
LWPOLYLINE
  5
E8
330
2
100
AcDbEntity
  8
CASE
100
AcDbPolyline
 90
        5
 70
     1
 43
0.0
 38
10.0
 10
605867.7030999996
 20
961484.6405999998
 10
605865.1094000005
 20
961485.9844000005
 10
605863.1250000001
 20
961487.0
 10
605865.3905999996
 20
961491.4063000007
 10
605869.9375
 20
961489.0155999995
  0
LWPOLYLINE
  5
E9
330
2
100
AcDbEntity
  8
CASE
100
AcDbPolyline
 90
        5
 70
     1
 43
0.0
 38
10.0
 10
606064.125
 20
961492.4063000009
 10
606057.9687999999
 20
961476.7030999997
 10
606050.3437000001
 20
961479.5780999997
 10
606056.4375000001
 20
961495.2969000006
 10
606059.2344000005
 20
961494.2186999993
  0
LWPOLYLINE
  5
EA
330
2
100
AcDbEntity
  8
CASE
100
AcDbPolyline
 90
        6
 70
     1
 43
0.0
 38
10.0
 10
605758.3125
 20
961098.2655999997
 10
605747.2030999996
 20
961099.5155999995
 10
605748.6094000005
 20
961108.2344000005
 10
605752.8905999996
 20
961107.7655999997
 10
605753.4687000001
 20
961111.1094000005
 10
605760.2344000004
 20
961110.4063000007
  0
LWPOLYLINE
  5
EB
330
2
100
AcDbEntity
  8
CASE
100
AcDbPolyline
 90
       15
 70
     1
 43
0.0
 38
10.0
 10
605935.1299999999
 20
961303.1199999992
 10
605930.5700000003
 20
961295.5800000001
 10
605929.3600000003
 20
961293.5199999995
 10
605922.8799999999
 20
961282.6600000001
 10
605907.5700000003
 20
961256.9399999996
 10
605888.6100000004
 20
961225.0
 10
605882.0099999998
 20
961213.8200000003
 10
605876.3799999999
 20
961217.1199999991
 10
605861.2199999998
 20
961226.0199999996
 10
605850.8700000001
 20
961232.08
 10
605853.2699999996
 20
961236.1700000001
 10
605860.5700000003
 20
961248.4100000001
 10
605877.4900000003
 20
961276.9700000008
 10
605903.8799999999
 20
961321.5999999995
 10
605914.7999999998
 20
961315.1400000006
  0
LWPOLYLINE
  5
EC
330
2
100
AcDbEntity
  8
CASE
100
AcDbPolyline
 90
        4
 70
     1
 43
0.0
 38
10.0
 10
605817.5312000001
 20
961337.3594000005
 10
605816.0780999996
 20
961347.8594000005
 10
605835.5625
 20
961350.7969000004
 10
605836.6094000004
 20
961340.3280999996
  0
LWPOLYLINE
  5
ED
330
2
100
AcDbEntity
  8
CASE
100
AcDbPolyline
 90
        6
 70
     1
 43
0.0
 38
10.0
 10
606124.6875000001
 20
961347.6094000006
 10
606123.5
 20
961357.7188000007
 10
606135.4844000004
 20
961359.2344000004
 10
606135.875
 20
961355.7344000005
 10
606138.125
 20
961356.0
 10
606138.9530999996
 20
961349.125
  0
LWPOLYLINE
  5
EE
330
2
100
AcDbEntity
  8
CASE
100
AcDbPolyline
 90
       10
 70
     1
 43
0.0
 38
10.0
 10
605662.0102000003
 20
961390.8809999992
 10
605676.2742999997
 20
961393.0423000008
 10
605684.7715999996
 20
961394.5977
 10
605685.2399000004
 20
961389.6057999994
 10
605677.9743999997
 20
961388.3813000006
 10
605679.4030999998
 20
961383.5554000008
 10
605680.6505000005
 20
961380.2153999992
 10
605670.4786
 20
961375.2752000001
 10
605667.5910999998
 20
961374.6488000005
 10
605663.2970000004
 20
961386.7459999994
  0
LWPOLYLINE
  5
EF
330
2
100
AcDbEntity
  8
CASE
100
AcDbPolyline
 90
        6
 70
     1
 43
0.0
 38
10.0
 10
606208.1719000005
 20
961401.1875
 10
606204.8437999999
 20
961400.6094000004
 10
606206.3437999999
 20
961393.0469000004
 10
606200.5155999996
 20
961392.1405999995
 10
606197.2344000004
 20
961409.0
 10
606206.3280999996
 20
961410.5938000008
  0
LWPOLYLINE
  5
F0
330
2
100
AcDbEntity
  8
CASE
100
AcDbPolyline
 90
       10
 70
     1
 43
0.0
 38
10.0
 10
605739.9219000004
 20
961041.9688000007
 10
605740.7655999996
 20
961046.2811999994
 10
605738.6719000004
 20
961046.5155999996
 10
605739.9844000005
 20
961053.3905999997
 10
605741.9530999996
 20
961053.1405999998
 10
605742.8280999996
 20
961058.0780999995
 10
605771.8594000004
 20
961053.8594000004
 10
605769.7344000004
 20
961041.5000000001
 10
605754.9219000005
 20
961043.6094000005
 10
605754.3280999996
 20
961039.9219000004
  0
LWPOLYLINE
  5
F1
330
2
100
AcDbEntity
  8
CASE
100
AcDbPolyline
 90
        5
 70
     1
 43
0.0
 38
10.0
 10
605670.8437000001
 20
961045.5780999997
 10
605653.5155999996
 20
961047.8436999994
 10
605655.2969000005
 20
961064.3280999996
 10
605660.2655999996
 20
961069.1250000002
 10
605673.1094000005
 20
961067.4375000002
  0
LWPOLYLINE
  5
F2
330
2
100
AcDbEntity
  8
CASE
100
AcDbPolyline
 90
       14
 70
     1
 43
0.0
 38
10.0
 10
605804.625
 20
961072.2813000009
 10
605773.1405999996
 20
961075.1249999999
 10
605774.4375
 20
961086.5155999995
 10
605776.9219000004
 20
961086.3594000004
 10
605778.2344000004
 20
961097.4844000004
 10
605786.5937000001
 20
961096.6405999995
 10
605785.4219000004
 20
961085.6563000007
 10
605796.0625
 20
961084.7344000005
 10
605796.7655999996
 20
961091.4375
 10
605802.0780999996
 20
961090.9219000005
 10
605801.8280999996
 20
961088.3750000001
 10
605804.5625
 20
961088.1094000005
 10
605804.0625
 20
961082.8438000007
 10
605805.7030999997
 20
961082.6405999997
  0
LWPOLYLINE
  5
F3
330
2
100
AcDbEntity
  8
CASE
100
AcDbPolyline
 90
        8
 70
     1
 43
0.0
 38
10.0
 10
605890.2812999999
 20
961081.5313000008
 10
605887.1094000005
 20
961091.0780999997
 10
605896.7812000001
 20
961094.3436999994
 10
605897.625
 20
961091.7030999997
 10
605901.7812000001
 20
961093.0780999996
 10
605900.4530999995
 20
961097.2813000008
 10
605911.2500000001
 20
961100.9061999993
 10
605914.9375
 20
961089.8280999997
  0
LWPOLYLINE
  5
F4
330
2
100
AcDbEntity
  8
CASE
100
AcDbPolyline
 90
        4
 70
     1
 43
0.0
 38
10.0
 10
606182.6094000005
 20
961102.0313000008
 10
606175.2969000004
 20
961104.4844000005
 10
606179.3594000004
 20
961118.4530999997
 10
606186.6875
 20
961116.0
  0
LWPOLYLINE
  5
F5
330
2
100
AcDbEntity
  8
CASE
100
AcDbPolyline
 90
        6
 70
     1
 43
0.0
 38
10.0
 10
606079.4530999996
 20
961317.5155999996
 10
606077.4219000005
 20
961329.25
 10
606100.9844000004
 20
961333.3125
 10
606101.7812999999
 20
961328.5313000007
 10
606104.0155999996
 20
961328.9219000005
 10
606105.1094000005
 20
961322.2030999997
  0
LWPOLYLINE
  5
F6
330
2
100
AcDbEntity
  8
CASE
100
AcDbPolyline
 90
        5
 70
     1
 43
0.0
 38
10.0
 10
606115.0312999999
 20
961342.0625000001
 10
606118.4375
 20
961321.0938000008
 10
606112.4219000005
 20
961320.3125000001
 10
606109.1094000005
 20
961341.1563000008
 10
606112.3594000004
 20
961341.6563000008
  0
LWPOLYLINE
  5
F7
330
2
100
AcDbEntity
  8
CASE
100
AcDbPolyline
 90
        4
 70
     1
 43
0.0
 38
10.0
 10
606181.8905999996
 20
961344.2655999996
 10
606180.7187999999
 20
961350.8750000001
 10
606204.625
 20
961355.125
 10
606205.9687000001
 20
961348.5311999994
  0
LWPOLYLINE
  5
F8
330
2
100
AcDbEntity
  8
CASE
100
AcDbPolyline
 90
        6
 70
     1
 43
0.0
 38
10.0
 10
605895.6562999999
 20
961341.8125000002
 10
605894.2344000005
 20
961351.5469000006
 10
605896.5625
 20
961352.0780999998
 10
605895.1719000004
 20
961359.9375000001
 10
605904.1094000004
 20
961361.8125000002
 10
605907.4999999999
 20
961343.9375
  0
LWPOLYLINE
  5
F9
330
2
100
AcDbEntity
  8
CASE
100
AcDbPolyline
 90
        4
 70
     1
 43
0.0
 38
10.0
 10
606159.7812000001
 20
961352.2500000001
 10
606158.0313
 20
961363.4375000001
 10
606169.4219000004
 20
961365.1563000008
 10
606171.1719000005
 20
961354.0
  0
LWPOLYLINE
  5
FA
330
2
100
AcDbEntity
  8
CASE
100
AcDbPolyline
 90
        4
 70
     1
 43
0.0
 38
10.0
 10
606078.0312000002
 20
961130.2188000008
 10
606075.5
 20
961118.8594000005
 10
606065.2344000004
 20
961121.3280999997
 10
606067.8280999996
 20
961132.7344000004
  0
LWPOLYLINE
  5
FB
330
2
100
AcDbEntity
  8
CASE
100
AcDbPolyline
 90
        4
 70
     1
 43
0.0
 38
10.0
 10
605791.2344000005
 20
961131.7186999993
 10
605787.3280999996
 20
961130.6094000006
 10
605785.75
 20
961136.3280999995
 10
605789.6719000004
 20
961137.4375
  0
LWPOLYLINE
  5
FC
330
2
100
AcDbEntity
  8
CASE
100
AcDbPolyline
 90
       12
 70
     1
 43
0.0
 38
10.0
 10
606105.375
 20
961117.9530999997
 10
606101.5469000004
 20
961118.9375000002
 10
606103.4063
 20
961126.7811999994
 10
606101.0312999999
 20
961127.4063000008
 10
606101.8594000004
 20
961130.6405999997
 10
606103.8437999999
 20
961130.1405999997
 10
606105.875
 20
961138.5469000005
 10
606109.2813
 20
961137.7030999996
 10
606108.8437000001
 20
961135.8905999997
 10
606113.0155999996
 20
961134.8594000006
 10
606109.1094000005
 20
961119.125
 10
606105.8437000001
 20
961120.0
  0
LWPOLYLINE
  5
FD
330
2
100
AcDbEntity
  8
CASE
100
AcDbPolyline
 90
        6
 70
     1
 43
0.0
 38
10.0
 10
605797.2344000004
 20
961132.3750000002
 10
605796.5
 20
961135.6405999996
 10
605794.9219000004
 20
961141.4219000005
 10
605809.3750000001
 20
961145.7186999993
 10
605812.6875
 20
961133.3594000004
 10
605798.0780999996
 20
961129.1719000005
  0
LWPOLYLINE
  5
FE
330
2
100
AcDbEntity
  8
CASE
100
AcDbPolyline
 90
        6
 70
     1
 43
0.0
 38
10.0
 10
606079.9530999996
 20
961138.7969000006
 10
606074.6562999999
 20
961140.0780999996
 10
606075.5
 20
961143.7969000006
 10
606076.3280999996
 20
961147.5625
 10
606089.1875
 20
961144.3905999998
 10
606087.4687000001
 20
961136.8905999995
  0
LWPOLYLINE
  5
FF
330
2
100
AcDbEntity
  8
CASE
100
AcDbPolyline
 90
        4
 70
     1
 43
0.0
 38
10.0
 10
605791.0469000004
 20
961153.7344000005
 10
605795.7655999996
 20
961154.9688000009
 10
605797.2030999996
 20
961149.0155999996
 10
605792.5
 20
961147.7655999998
  0
LWPOLYLINE
  5
100
330
2
100
AcDbEntity
  8
CASE
100
AcDbPolyline
 90
       12
 70
     1
 43
0.0
 38
10.0
 10
605772.75
 20
961117.5000000001
 10
605750.0
 20
961121.0780999996
 10
605751.9219000004
 20
961133.8125000001
 10
605759.8594000005
 20
961132.5155999997
 10
605761.2812000002
 20
961141.9686999994
 10
605752.9844000004
 20
961143.2813000007
 10
605754.8437999999
 20
961155.5625000001
 10
605776.5780999996
 20
961152.125
 10
605774.8280999996
 20
961140.2655999995
 10
605767.6875
 20
961141.4375000002
 10
605766.2030999996
 20
961131.4686999994
 10
605774.6875
 20
961130.1719000005
  0
LWPOLYLINE
  5
101
330
2
100
AcDbEntity
  8
CASE
100
AcDbPolyline
 90
        4
 70
     1
 43
0.0
 38
10.0
 10
605791.0469000004
 20
961153.7344000005
 10
605786.3438
 20
961152.5780999997
 10
605784.9530999996
 20
961158.4063000009
 10
605789.6562999999
 20
961159.6094000006
  0
LWPOLYLINE
  5
102
330
2
100
AcDbEntity
  8
CASE
100
AcDbPolyline
 90
        4
 70
     1
 43
0.0
 38
10.0
 10
606190.0312000001
 20
961205.8280999995
 10
606171.0625
 20
961211.6561999993
 10
606174.1405999995
 20
961220.375
 10
606192.8594000004
 20
961215.0469000006
  0
LWPOLYLINE
  5
103
330
2
100
AcDbEntity
  8
CASE
100
AcDbPolyline
 90
        4
 70
     1
 43
0.0
 38
10.0
 10
605847.8280999995
 20
961199.8594000006
 10
605841.3905999996
 20
961219.0
 10
605845.875
 20
961220.5000000001
 10
605852.3125
 20
961201.3594000003
  0
LWPOLYLINE
  5
104
330
2
100
AcDbEntity
  8
CASE
100
AcDbPolyline
 90
        9
 70
     1
 43
0.0
 38
10.0
 10
606149.2910000002
 20
961210.3323000001
 10
606130.3181999996
 20
961216.2916
 10
606131.3494999996
 20
961219.4791
 10
606142.3651000001
 20
961215.6666
 10
606144.2949000001
 20
961223.1931999996
 10
606138.6930999998
 20
961222.7897999993
 10
606138.0876000002
 20
961226.6228000001
 10
606150.2496999995
 20
961228.5549999995
 10
606154.1355
 20
961227.1427999996
  0
LWPOLYLINE
  5
105
330
2
100
AcDbEntity
  8
CASE
100
AcDbPolyline
 90
        4
 70
     1
 43
0.0
 38
10.0
 10
605835.2030999996
 20
961230.5938000007
 10
605833.5625
 20
961235.5780999997
 10
605839.5469000005
 20
961237.5155999997
 10
605841.1719000004
 20
961232.5313000008
  0
LWPOLYLINE
  5
106
330
2
100
AcDbEntity
  8
CASE
100
AcDbPolyline
 90
        4
 70
     1
 43
0.0
 38
10.0
 10
606209.3437000001
 20
961244.7188000007
 10
606204.2969000004
 20
961246.3125000001
 10
606205.75
 20
961251.7813000009
 10
606210.7969000004
 20
961250.1563000009
  0
LWPOLYLINE
  5
107
330
2
100
AcDbEntity
  8
CASE
100
AcDbPolyline
 90
        4
 70
     1
 43
0.0
 38
10.0
 10
606179.5155999996
 20
961086.4219000005
 10
606169.5937999999
 20
961089.6405999996
 10
606171.5
 20
961096.3594000004
 10
606181.4219000004
 20
961093.1405999997
  0
LWPOLYLINE
  5
108
330
2
100
AcDbEntity
  8
CASE
100
AcDbPolyline
 90
        4
 70
     1
 43
0.0
 38
10.0
 10
605815.5780999996
 20
961093.9844000006
 10
605812.8437999999
 20
961103.3594000005
 10
605821.8594000004
 20
961105.9375000001
 10
605824.5313
 20
961096.625
  0
LWPOLYLINE
  5
109
330
2
100
AcDbEntity
  8
CASE
100
AcDbPolyline
 90
        4
 70
     1
 43
0.0
 38
10.0
 10
606111.875
 20
961102.0
 10
606106.9219000004
 20
961104.375
 10
606109.1094000005
 20
961110.8438000009
 10
606113.8280999996
 20
961109.6875000001
  0
LWPOLYLINE
  5
10A
330
2
100
AcDbEntity
  8
CASE
100
AcDbPolyline
 90
        6
 70
     1
 43
0.0
 38
10.0
 10
606142.3905999996
 20
961238.5938000009
 10
606138.9219000004
 20
961255.1561999993
 10
606150.7655999996
 20
961256.5780999997
 10
606152.2030999996
 20
961247.8905999997
 10
606155.2969000004
 20
961248.5469000006
 10
606156.4687999999
 20
961241.5311999994
  0
LWPOLYLINE
  5
10B
330
2
100
AcDbEntity
  8
CASE
100
AcDbPolyline
 90
       15
 70
     1
 43
0.0
 38
10.0
 10
605781.9814
 20
961259.6677
 10
605785.2265999997
 20
961248.6115000006
 10
605783.5235000002
 20
961247.1718000007
 10
605788.8964999998
 20
961226.3222000006
 10
605773.0937999999
 20
961221.4530999997
 10
605762.4375
 20
961224.25
 10
605761.1875
 20
961228.2811999994
 10
605763.6405999996
 20
961229.1094000006
 10
605762.7030999996
 20
961231.9844000005
 10
605774.1875
 20
961235.6719000004
 10
605770.7969000005
 20
961246.5
 10
605761.7030999995
 20
961246.0
 10
605761.9375
 20
961257.3436999994
 10
605764.0313
 20
961257.4219000006
 10
605764.0780999996
 20
961258.7186999993
  0
LWPOLYLINE
  5
10C
330
2
100
AcDbEntity
  8
CASE
100
AcDbPolyline
 90
        4
 70
     1
 43
0.0
 38
10.0
 10
606045.1405999996
 20
961275.5469000006
 10
606042.75
 20
961287.1719000004
 10
606062.2655999996
 20
961290.4375000001
 10
606064.7187000001
 20
961278.5313000008
  0
LWPOLYLINE
  5
10D
330
2
100
AcDbEntity
  8
CASE
100
AcDbPolyline
 90
        4
 70
     1
 43
0.0
 38
10.0
 10
605855.0937999999
 20
961473.875
 10
605841.4062999999
 20
961481.9375000001
 10
605846.0155999996
 20
961490.1094000005
 10
605859.7655999996
 20
961482.0625
  0
LWPOLYLINE
  5
10E
330
2
100
AcDbEntity
  8
CASE
100
AcDbPolyline
 90
       12
 70
     1
 43
0.0
 38
10.0
 10
606117.2655999996
 20
961367.8124999999
 10
606116.0625
 20
961375.3594000005
 10
606123.1875
 20
961376.4844000005
 10
606121.7969000004
 20
961385.0155999998
 10
606118.6719000005
 20
961384.5155999996
 10
606118.2655999996
 20
961386.9375
 10
606113.0155999996
 20
961386.1250000001
 10
606111.5780999996
 20
961395.1250000001
 10
606125.625
 20
961397.2030999995
 10
606126.4062999999
 20
961392.7813000008
 10
606129.9844000004
 20
961393.5625000001
 10
606133.8280999996
 20
961370.6875000001
  0
LWPOLYLINE
  5
10F
330
2
100
AcDbEntity
  8
CASE
100
AcDbPolyline
 90
        6
 70
     1
 43
0.0
 38
10.0
 10
606018.5312999999
 20
961422.0469000004
 10
606016.2969000004
 20
961433.3436999993
 10
606024.2500000001
 20
961434.9688000007
 10
606024.5469000005
 20
961433.4063000008
 10
606028.875
 20
961434.2500000001
 10
606030.5937999999
 20
961423.875
  0
LWPOLYLINE
  5
110
330
2
100
AcDbEntity
  8
CASE
100
AcDbPolyline
 90
        8
 70
     1
 43
0.0
 38
10.0
 10
605696.2742999997
 20
961442.2298000008
 10
605697.4617999998
 20
961437.7923000008
 10
605698.0242999998
 20
961434.9798000008
 10
605680.7117999998
 20
961431.4173000009
 10
605680.3992999998
 20
961434.3548000007
 10
605684.7117999997
 20
961435.104800001
 10
605683.7742999997
 20
961439.8548000009
 10
605683.9617999997
 20
961439.9173000009
  0
LWPOLYLINE
  5
111
330
2
100
AcDbEntity
  8
CASE
100
AcDbPolyline
 90
        4
 70
     1
 43
0.0
 38
10.0
 10
605880.9219000004
 20
961509.5155999997
 10
605883.9687999999
 20
961508.3905999997
 10
605882.7187000002
 20
961505.0
 10
605879.6719000004
 20
961506.1405999997
  0
LWPOLYLINE
  5
112
330
2
100
AcDbEntity
  8
CASE
100
AcDbPolyline
 90
        6
 70
     1
 43
0.0
 38
10.0
 10
606174.4844000005
 20
961500.2969000006
 10
606166.4062000001
 20
961503.9530999997
 10
606168.25
 20
961508.0936999994
 10
606165.9844000004
 20
961509.0625
 10
606168.4530999996
 20
961514.5780999997
 10
606178.8280999996
 20
961509.8750000001
  0
LWPOLYLINE
  5
113
330
2
100
AcDbEntity
  8
CASE
100
AcDbPolyline
 90
        6
 70
     1
 43
0.0
 38
10.0
 10
605908.9375
 20
961518.3280999996
 10
605899.9687000001
 20
961521.5780999996
 10
605903.6562000001
 20
961530.9688000008
 10
605906.1875000001
 20
961530.0313000007
 10
605907.2813
 20
961532.6563000008
 10
605913.625
 20
961530.2813000008
  0
LWPOLYLINE
  5
114
330
2
100
AcDbEntity
  8
CASE
100
AcDbPolyline
 90
        4
 70
     1
 43
0.0
 38
10.0
 10
606028.9973999998
 20
961527.2707000002
 10
606025.25
 20
961517.8280999996
 10
606009.0203999998
 20
961523.8578999992
 10
606012.4365999996
 20
961533.6541000008
  0
LWPOLYLINE
  5
115
330
2
100
AcDbEntity
  8
CASE
100
AcDbPolyline
 90
       16
 70
     1
 43
0.0
 38
10.0
 10
606169.625
 20
961450.3436999994
 10
606165.75
 20
961452.0780999995
 10
606172.3594000004
 20
961466.7655999996
 10
606175.9063
 20
961465.4686999994
 10
606174.8437999999
 20
961463.2969000005
 10
606180.25
 20
961461.1719000004
 10
606181.5155999996
 20
961463.5469000006
 10
606186.125
 20
961461.7344000004
 10
606183.5
 20
961457.0155999997
 10
606186.2655999996
 20
961455.9063000008
 10
606183.875
 20
961451.4844000005
 10
606181.2344000005
 20
961452.7344000006
 10
606180.4063
 20
961450.8905999997
 10
606175.5469000004
 20
961453.0155999997
 10
606174.5155999997
 20
961450.6094000006
 10
606170.5313
 20
961452.3594000004
  0
LWPOLYLINE
  5
116
330
2
100
AcDbEntity
  8
CASE
100
AcDbPolyline
 90
       10
 70
     1
 43
0.0
 38
10.0
 10
605759.9844000004
 20
961020.5625
 10
605740.9687999999
 20
961022.2969000005
 10
605741.6094000005
 20
961026.9219000004
 10
605738.9375
 20
961027.1719000005
 10
605739.5937999999
 20
961031.9219000004
 10
605750.4375
 20
961030.9219000004
 10
605750.75
 20
961033.1719000004
 10
605755.25
 20
961032.7344000005
 10
605755.0155999996
 20
961030.8594000004
 10
605761.1094000004
 20
961030.2500000001
  0
LWPOLYLINE
  5
117
330
2
100
AcDbEntity
  8
CASE
100
AcDbPolyline
 90
        4
 70
     1
 43
0.0
 38
10.0
 10
605734.3388999999
 20
961042.8773999997
 10
605739.9219000004
 20
961041.9688000007
 10
605738.8750000001
 20
961036.25
 10
605733.5979000004
 20
961036.8546999993
  0
LWPOLYLINE
  5
118
330
2
100
AcDbEntity
  8
CASE
100
AcDbPolyline
 90
        7
 70
     1
 43
0.0
 38
10.0
 10
605680.1405999996
 20
961046.7655999997
 10
605682.1562000001
 20
961066.6094000004
 10
605690.7812000002
 20
961065.5311999993
 10
605696.0312000001
 20
961064.7969000005
 10
605695.5155999996
 20
961059.6561999994
 10
605690.2030999996
 20
961060.3280999995
 10
605688.7344000005
 20
961045.2188000008
  0
LWPOLYLINE
  5
119
330
2
100
AcDbEntity
  8
CASE
100
AcDbPolyline
 90
        9
 70
     1
 43
0.0
 38
10.0
 10
605993.25
 20
961026.2188000007
 10
605981.7969000004
 20
961062.5313000008
 10
605962.2344000004
 20
961056.375
 10
605957.0780999996
 20
961073.0155999997
 10
605994.3280999996
 20
961084.7344000005
 10
605997.3437000001
 20
961075.0625000001
 10
606007.7812999999
 20
961043.1875000001
 10
606013.3280999996
 20
961044.8905999996
 10
606017.0937000001
 20
961033.5938000007
  0
LWPOLYLINE
  5
11A
330
2
100
AcDbEntity
  8
CASE
100
AcDbPolyline
 90
        5
 70
     1
 43
0.0
 38
10.0
 10
605696.5780999996
 20
961101.2030999996
 10
605697.125
 20
961101.125
 10
605715.9530999996
 20
961097.5155999996
 10
605714.0937999999
 20
961086.7500000001
 10
605695.4219000004
 20
961090.1094000006
  0
LWPOLYLINE
  5
11B
330
2
100
AcDbEntity
  8
CASE
100
AcDbPolyline
 90
        4
 70
     1
 43
0.0
 38
10.0
 10
606128.1094000005
 20
961112.7030999996
 10
606122.7030999996
 20
961114.4375000002
 10
606124.3594000004
 20
961119.3124999999
 10
606129.6875
 20
961117.6719000006
  0
LWPOLYLINE
  5
11C
330
2
100
AcDbEntity
  8
CASE
100
AcDbPolyline
 90
        4
 70
     1
 43
0.0
 38
10.0
 10
605681.7812000002
 20
961112.9530999996
 10
605667.2655999996
 20
961114.9844000005
 10
605668.5780999996
 20
961125.7969000005
 10
605683.3437999999
 20
961123.7969000004
  0
LWPOLYLINE
  5
11D
330
2
100
AcDbEntity
  8
CASE
100
AcDbPolyline
 90
       12
 70
     1
 43
0.0
 38
10.0
 10
606145.9844000005
 20
961103.6094000006
 10
606136.7813
 20
961106.7030999997
 10
606139.25
 20
961115.1875
 10
606140.3125
 20
961114.8594000006
 10
606141.6562999999
 20
961119.4530999997
 10
606140.1719000005
 20
961119.9844000005
 10
606142.5155999996
 20
961128.0469000005
 10
606151.4687999999
 20
961125.0780999997
 10
606148.8905999996
 20
961116.2811999994
 10
606150.4530999997
 20
961115.7655999996
 10
606149.2655999995
 20
961111.6094000005
 10
606148.4062999999
 20
961111.8594000004
  0
LWPOLYLINE
  5
11E
330
2
100
AcDbEntity
  8
CASE
100
AcDbPolyline
 90
        6
 70
     1
 43
0.0
 38
10.0
 10
605711.25
 20
961127.0938000009
 10
605704.2188
 20
961128.2188000009
 10
605705.8125000001
 20
961141.4219000005
 10
605718.1719000005
 20
961139.4063000007
 10
605717.0155999996
 20
961129.4844000006
 10
605711.6405999996
 20
961130.3594000006
  0
LWPOLYLINE
  5
11F
330
2
100
AcDbEntity
  8
CASE
100
AcDbPolyline
 90
        4
 70
     1
 43
0.0
 38
10.0
 10
606193.875
 20
961148.9844000004
 10
606196.4687999999
 20
961156.0313000008
 10
606199.1405999997
 20
961155.1875000001
 10
606196.6094000005
 20
961148.1563000008
  0
LWPOLYLINE
  5
120
330
2
100
AcDbEntity
  8
CASE
100
AcDbPolyline
 90
        4
 70
     1
 43
0.0
 38
10.0
 10
605855.0155999996
 20
961153.2813000009
 10
605852.9062999999
 20
961159.9375
 10
605859.1405999996
 20
961161.9063000008
 10
605861.25
 20
961155.2500000001
  0
LWPOLYLINE
  5
121
330
2
100
AcDbEntity
  8
CASE
100
AcDbPolyline
 90
        6
 70
     1
 43
0.0
 38
10.0
 10
605840.4844000005
 20
961151.8125000001
 10
605837.9062000001
 20
961160.0936999993
 10
605839.1405999996
 20
961160.4688000008
 10
605838.375
 20
961162.8594000004
 10
605845.2812999999
 20
961165.0780999996
 10
605848.6875
 20
961154.4063000009
  0
LWPOLYLINE
  5
122
330
2
100
AcDbEntity
  8
CASE
100
AcDbPolyline
 90
        6
 70
     1
 43
0.0
 38
10.0
 10
605836.8437000002
 20
961414.4686999992
 10
605832.3125000001
 20
961415.125
 10
605836.0780999996
 20
961423.8280999996
 10
605845.375
 20
961419.8749999999
 10
605843.5313
 20
961415.5311999994
 10
605838.2187999999
 20
961417.7969000005
  0
LWPOLYLINE
  5
123
330
2
100
AcDbEntity
  8
CASE
100
AcDbPolyline
 90
       12
 70
     1
 43
0.0
 38
10.0
 10
605815.7344000004
 20
961390.875
 10
605799.5312999999
 20
961415.0155999997
 10
605801.4688
 20
961416.4844000004
 10
605800.1562000001
 20
961418.3750000002
 10
605806.8437000001
 20
961424.3280999996
 10
605813.8280999996
 20
961413.9688000008
 10
605818.8280999996
 20
961416.4219000004
 10
605826.4375
 20
961406.6719000005
 10
605821.5937000001
 20
961403.5938000007
 10
605827.1094000005
 20
961396.4530999997
 10
605819.4688
 20
961391.4844000005
 10
605818.5155999996
 20
961392.6405999997
  0
LWPOLYLINE
  5
124
330
2
100
AcDbEntity
  8
CASE
100
AcDbPolyline
 90
        6
 70
     1
 43
0.0
 38
10.0
 10
605863.0274000001
 20
961423.2078000007
 10
605862.0115
 20
961420.0122999996
 10
605850.302
 20
961423.7347999996
 10
605852.2814999996
 20
961429.9613000005
 10
605861.7448000005
 20
961426.9528000001
 10
605860.7812000001
 20
961423.9219000005
  0
LWPOLYLINE
  5
125
330
2
100
AcDbEntity
  8
CASE
100
AcDbPolyline
 90
        7
 70
     1
 43
0.0
 38
10.0
 10
605655.9617999997
 20
961443.7298000009
 10
605656.9617999997
 20
961441.4173000009
 10
605667.4617999997
 20
961445.9798000009
 10
605672.3367999997
 20
961432.854800001
 10
605661.3367999997
 20
961430.9173000009
 10
605647.2742999996
 20
961428.4173000008
 10
605643.3992999997
 20
961437.917300001
  0
LWPOLYLINE
  5
126
330
2
100
AcDbEntity
  8
CASE
100
AcDbPolyline
 90
       10
 70
     1
 43
0.0
 38
10.0
 10
605860.4062000001
 20
961441.5625000001
 10
605851.7187000001
 20
961443.8125000001
 10
605852.9844000005
 20
961448.1561999994
 10
605851.4375
 20
961448.6094000005
 10
605853.2030999995
 20
961454.7813000008
 10
605855.3594000004
 20
961454.2186999994
 10
605855.9844000004
 20
961456.4219000005
 10
605866.7188
 20
961453.1405999997
 10
605865.1405999996
 20
961447.6875000001
 10
605862.5
 20
961448.5155999997
  0
LWPOLYLINE
  5
127
330
2
100
AcDbEntity
  8
CASE
100
AcDbPolyline
 90
        8
 70
     1
 43
0.0
 38
10.0
 10
605946.875
 20
961441.1719000004
 10
605934.5469000004
 20
961446.7186999993
 10
605935.9219000004
 20
961449.7188000008
 10
605933.25
 20
961450.9063000008
 10
605934.875
 20
961454.3280999995
 10
605937.6094000004
 20
961453.0780999997
 10
605939.5312999999
 20
961457.3280999996
 10
605951.7500000001
 20
961451.7655999996
  0
LWPOLYLINE
  5
128
330
2
100
AcDbEntity
  8
CASE
100
AcDbPolyline
 90
        9
 70
     1
 43
0.0
 38
10.0
 10
606096.3905999996
 20
961435.2500000002
 10
606094.2655999996
 20
961439.9063000007
 10
606104.2969000005
 20
961466.6875000001
 10
606112.2655999996
 20
961463.6405999997
 10
606107.6875000001
 20
961451.3594000005
 10
606105.0155999996
 20
961452.4063000008
 10
606103.2812999999
 20
961447.5
 10
606115.3280999995
 20
961448.5313000008
 10
606116.2969000005
 20
961438.2186999993
  0
LWPOLYLINE
  5
129
330
2
100
AcDbEntity
  8
CASE
100
AcDbPolyline
 90
        5
 70
     1
 43
0.0
 38
10.0
 10
605684.7478
 20
961226.8790000008
 10
605693.7659999998
 20
961222.0866000001
 10
605684.1462000003
 20
961203.2457000001
 10
605675.2538999999
 20
961207.5869999994
 10
605682.5895999996
 20
961222.6155999993
  0
LWPOLYLINE
  5
12A
330
2
100
AcDbEntity
  8
CASE
100
AcDbPolyline
 90
        6
 70
     1
 43
0.0
 38
10.0
 10
606095.7187999999
 20
961234.3125000002
 10
606094.6875
 20
961240.2969000005
 10
606104.1719000004
 20
961241.9219000004
 10
606103.625
 20
961244.875
 10
606111.125
 20
961246.1875000001
 10
606112.9530999996
 20
961237.1719000005
  0
LWPOLYLINE
  5
12B
330
2
100
AcDbEntity
  8
CASE
100
AcDbPolyline
 90
        5
 70
     1
 43
0.0
 38
10.0
 10
605736.7655999996
 20
961267.1875000001
 10
605741.0312000001
 20
961265.6405999997
 10
605741.0469000005
 20
961252.25
 10
605735.5625
 20
961252.8438000008
 10
605736.4687999999
 20
961266.4375000001
  0
LWPOLYLINE
  5
12C
330
2
100
AcDbEntity
  8
CASE
100
AcDbPolyline
 90
        4
 70
     1
 43
0.0
 38
10.0
 10
605727.1719000005
 20
961257.4375000001
 10
605722.0780999996
 20
961247.2188000008
 10
605716.0
 20
961250.3905999997
 10
605720.9844000005
 20
961261.0625000002
  0
LWPOLYLINE
  5
12D
330
2
100
AcDbEntity
  8
CASE
100
AcDbPolyline
 90
        6
 70
     1
 43
0.0
 38
10.0
 10
606171.4219000005
 20
961283.4375
 10
606168.6405999996
 20
961296.8905999997
 10
606176.1719000005
 20
961298.3594000006
 10
606177.2344000004
 20
961293.4375000001
 10
606179.2344000004
 20
961293.8438000007
 10
606181.0312999999
 20
961285.2655999997
  0
LWPOLYLINE
  5
12E
330
2
100
AcDbEntity
  8
CASE
100
AcDbPolyline
 90
        6
 70
     1
 43
0.0
 38
10.0
 10
606084.5469000004
 20
961297.5
 10
606083.8750000001
 20
961301.2030999996
 10
606082.0625
 20
961300.8280999997
 10
606080.5469000005
 20
961309.1405999997
 10
606092.8280999996
 20
961311.4219000005
 10
606095.0155999996
 20
961299.3905999996
  0
LWPOLYLINE
  5
12F
330
2
100
AcDbEntity
  8
CASE
100
AcDbPolyline
 90
        6
 70
     1
 43
0.0
 38
10.0
 10
605736.7655999996
 20
961267.1875000001
 10
605736.4687000001
 20
961266.4375000001
 10
605731.2344000004
 20
961266.1250000002
 10
605727.1719000005
 20
961257.4375000001
 10
605720.9844000005
 20
961261.0625000002
 10
605726.4062999999
 20
961271.1405999997
  0
LWPOLYLINE
  5
130
330
2
100
AcDbEntity
  8
CASE
100
AcDbPolyline
 90
        5
 70
     1
 43
0.0
 38
10.0
 10
605736.7655999996
 20
961267.1875000001
 10
605726.4062999999
 20
961271.1405999997
 10
605729.5780999996
 20
961277.1094000004
 10
605742.8125000001
 20
961275.6875000002
 10
605741.0312000001
 20
961265.6405999997
  0
LWPOLYLINE
  5
131
330
2
100
AcDbEntity
  8
CASE
100
AcDbPolyline
 90
        4
 70
     1
 43
0.0
 38
10.0
 10
606088.2655999996
 20
961269.7811999993
 10
606085.7649999997
 20
961281.8833000009
 10
606100.2562999996
 20
961284.1162000002
 10
606102.3437999999
 20
961272.375
  0
LWPOLYLINE
  5
132
330
2
100
AcDbEntity
  8
CASE
100
AcDbPolyline
 90
       10
 70
     1
 43
0.0
 38
10.0
 10
605673.6094000005
 20
961270.4844000006
 10
605665.4375
 20
961274.3749999999
 10
605668.1562000001
 20
961279.7655999997
 10
605665.7030999996
 20
961280.9063000007
 10
605671.0
 20
961291.5
 10
605676.7812000001
 20
961288.7655999998
 10
605675.1094000005
 20
961285.4375000001
 10
605681.375
 20
961282.4686999992
 10
605678.0469000004
 20
961275.8125
 10
605676.5780999995
 20
961276.5000000001
  0
LWPOLYLINE
  5
133
330
2
100
AcDbEntity
  8
CASE
100
AcDbPolyline
 90
        4
 70
     1
 43
0.0
 38
10.0
 10
606028.6094000004
 20
961317.5936999994
 10
606027.1875
 20
961327.3594000006
 10
606053.4530999996
 20
961330.9844000005
 10
606054.7969000005
 20
961321.2500000001
  0
LWPOLYLINE
  5
134
330
2
100
AcDbEntity
  8
CASE
100
AcDbPolyline
 90
        6
 70
     1
 43
0.0
 38
10.0
 10
606131.1405999996
 20
961317.5155999996
 10
606127.4530999996
 20
961338.3280999997
 10
606133.3905999996
 20
961339.2655999996
 10
606133.75
 20
961336.9686999995
 10
606139.7655999996
 20
961337.9219000005
 10
606142.9688
 20
961319.2655999997
  0
LWPOLYLINE
  5
135
330
2
100
AcDbEntity
  8
CASE
100
AcDbPolyline
 90
        6
 70
     1
 43
0.0
 38
10.0
 10
606162.3437999999
 20
961331.3905999996
 10
606161.5625
 20
961336.2344000005
 10
606163.875
 20
961336.5313000009
 10
606162.7655999996
 20
961343.4530999995
 10
606179.25
 20
961346.0625000001
 10
606181.375
 20
961334.5313000008
  0
LWPOLYLINE
  5
136
330
2
100
AcDbEntity
  8
CASE
100
AcDbPolyline
 90
       16
 70
     1
 43
0.0
 38
10.0
 10
605935.1299999999
 20
961303.1199999992
 10
605914.7999999998
 20
961315.1400000006
 10
605919.1299999999
 20
961322.7799999993
 10
605933.5300000003
 20
961331.1300000008
 10
605950.9500000002
 20
961331.3599999996
 10
605959.7699999995
 20
961326.3900000006
 10
605963.6399999997
 20
961333.1600000002
 10
606011.5999999997
 20
961305.1600000002
 10
606006.4400000005
 20
961294.0999999995
 10
606017.4000000004
 20
961286.6500000006
 10
606022.7800000003
 20
961274.4600000008
 10
606023.0
 20
961259.5500000008
 10
606020.2699999996
 20
961254.7899999993
 10
606004.96
 20
961263.51
 10
606004.5
 20
961271.2899999992
 10
605941.0599999996
 20
961306.7500000001
  0
LWPOLYLINE
  5
137
330
2
100
AcDbEntity
  8
CASE
100
AcDbPolyline
 90
        5
 70
     1
 43
0.0
 38
10.0
 10
606115.0312999999
 20
961342.0625000001
 10
606112.3594000004
 20
961341.6563000008
 10
606109.1094000005
 20
961341.1563000008
 10
606106.5
 20
961358.2813000007
 10
606112.4062000001
 20
961359.1875
  0
LWPOLYLINE
  5
138
330
2
100
AcDbEntity
  8
CASE
100
AcDbPolyline
 90
        8
 70
     1
 43
0.0
 38
10.0
 10
605917.4063
 20
961352.9219000005
 10
605915.3437999999
 20
961363.1563000009
 10
605922.4375
 20
961364.4374999999
 10
605923.1562
 20
961360.9530999996
 10
605925.5625
 20
961361.375
 10
605926.4219000004
 20
961357.1405999996
 10
605928.1875
 20
961357.4530999997
 10
605928.7187999999
 20
961354.9530999996
  0
LWPOLYLINE
  5
139
330
2
100
AcDbEntity
  8
CASE
100
AcDbPolyline
 90
        8
 70
     1
 43
0.0
 38
10.0
 10
606189.5937000001
 20
961355.0780999997
 10
606187.3280999996
 20
961368.6875
 10
606224.8437
 20
961374.5469000004
 10
606227.3594000004
 20
961361.9844000005
 10
606211.6405999996
 20
961358.9219000004
 10
606209.9530999996
 20
961367.0469000005
 10
606203.7187000001
 20
961366.0
 10
606205.25
 20
961357.7344000006
  0
LWPOLYLINE
  5
13A
330
2
100
AcDbEntity
  8
CASE
100
AcDbPolyline
 90
        8
 70
     1
 43
0.0
 38
10.0
 10
606031.6719000004
 20
961337.7969000005
 10
606030.25
 20
961350.0469000005
 10
606040.7030999996
 20
961351.2655999997
 10
606038.7187999999
 20
961368.3125000001
 10
606035.0
 20
961367.9061999993
 10
606033.2500000001
 20
961382.7969000006
 10
606050.4530999995
 20
961384.9530999997
 10
606055.6405999996
 20
961340.6563000008
  0
LWPOLYLINE
  5
13B
330
2
100
AcDbEntity
  8
CASE
100
AcDbPolyline
 90
        8
 70
     1
 43
0.0
 38
10.0
 10
606095.2969000005
 20
961375.6563000009
 10
606093.7655999996
 20
961384.2188000008
 10
606091.7655999996
 20
961383.9219000006
 10
606090.375
 20
961392.3438000007
 10
606097.8594000005
 20
961393.5000000001
 10
606098.2812000001
 20
961390.6561999993
 10
606103.1562000001
 20
961391.4688000008
 10
606105.5937999999
 20
961377.2813000009
  0
LWPOLYLINE
  5
13C
330
2
100
AcDbEntity
  8
CASE
100
AcDbPolyline
 90
       14
 70
     1
 43
0.0
 38
10.0
 10
605885.1875000001
 20
961456.6405999996
 10
605877.0780999996
 20
961459.5000000001
 10
605878.3280999996
 20
961463.6094000005
 10
605872.2969000005
 20
961465.6563000009
 10
605870.9062000001
 20
961461.3280999996
 10
605862.6562999999
 20
961466.3438000008
 10
605867.8437000001
 20
961477.6094000005
 10
605869.8125
 20
961477.0936999994
 10
605871.8280999996
 20
961481.8594000006
 10
605878.0469000005
 20
961478.5938000007
 10
605876.5469000004
 20
961473.7186999994
 10
605881.4530999995
 20
961472.0155999997
 10
605882.8280999996
 20
961476.3905999996
 10
605890.6405999996
 20
961473.6563000008
  0
LWPOLYLINE
  5
13D
330
2
100
AcDbEntity
  8
CASE
100
AcDbPolyline
 90
        4
 70
     1
 43
0.0
 38
10.0
 10
606181.8905999996
 20
961382.2655999996
 10
606177.2187999999
 20
961408.3436999994
 10
606188.1563
 20
961410.0780999997
 10
606192.8437000001
 20
961384.5311999995
  0
LWPOLYLINE
  5
13E
330
2
100
AcDbEntity
  8
CASE
100
AcDbPolyline
 90
        7
 70
     1
 43
0.0
 38
10.0
 10
606208.1719000005
 20
961401.1875
 10
606206.3280999996
 20
961410.5938000008
 10
606218.3280999995
 20
961412.7655999997
 10
606223.6562000001
 20
961384.5000000001
 10
606216.6719000004
 20
961383.7188000008
 10
606216.2655999996
 20
961385.5938000007
 10
606213.0
 20
961402.0780999997
  0
LWPOLYLINE
  5
13F
330
2
100
AcDbEntity
  8
CASE
100
AcDbPolyline
 90
        4
 70
     1
 43
0.0
 38
10.0
 10
605732.3905999997
 20
961201.6719000004
 10
605730.2187000001
 20
961186.9375000001
 10
605720.7655999996
 20
961188.1250000001
 10
605722.8594000005
 20
961202.8438000008
  0
LWPOLYLINE
  5
140
330
2
100
AcDbEntity
  8
CASE
100
AcDbPolyline
 90
        4
 70
     1
 43
0.0
 38
10.0
 10
606138.1875
 20
961188.9063000008
 10
606129.1405999996
 20
961191.5311999993
 10
606132.9530999996
 20
961204.7344000004
 10
606142.0625
 20
961202.1719000004
  0
LWPOLYLINE
  5
141
330
2
100
AcDbEntity
  8
CASE
100
AcDbPolyline
 90
        8
 70
     1
 43
0.0
 38
10.0
 10
606067.6094000005
 20
961209.1405999997
 10
606056.25
 20
961210.75
 10
606057.9844000004
 20
961222.6405999997
 10
606070.5780999995
 20
961220.8436999992
 10
606070.0625
 20
961217.0313000007
 10
606072.75
 20
961216.6561999993
 10
606071.8594000004
 20
961210.5311999993
 10
606067.9219000004
 20
961211.0780999996
  0
LWPOLYLINE
  5
142
330
2
100
AcDbEntity
  8
CASE
100
AcDbPolyline
 90
        4
 70
     1
 43
0.0
 38
10.0
 10
605697.4844000005
 20
961195.7655999995
 10
605701.4687000001
 20
961224.7344000005
 10
605711.9688
 20
961223.3594000004
 10
605708.2187999999
 20
961194.6405999995
  0
LWPOLYLINE
  5
143
330
2
100
AcDbEntity
  8
CASE
100
AcDbPolyline
 90
        5
 70
     1
 43
0.0
 38
10.0
 10
605890.5469000005
 20
961484.7030999996
 10
605878.1719000005
 20
961489.5313000008
 10
605881.6094000004
 20
961499.8125000001
 10
605897.5469000004
 20
961494.2500000001
 10
605895.1875
 20
961487.0155999996
  0
LWPOLYLINE
  5
144
330
2
100
AcDbEntity
  8
CASE
100
AcDbPolyline
 90
        8
 70
     1
 43
0.0
 38
10.0
 10
606017.6094000005
 20
961492.4375000001
 10
606011.6719000005
 20
961494.5780999995
 10
606012.75
 20
961497.4063000008
 10
606005.4219000004
 20
961500.0469000005
 10
606004.3905999997
 20
961497.4219000004
 10
605998.125
 20
961499.7030999996
 10
606001.5780999997
 20
961508.8124999999
 10
606021.0625
 20
961501.7655999997
  0
LWPOLYLINE
  5
145
330
2
100
AcDbEntity
  8
CASE
100
AcDbPolyline
 90
       10
 70
     1
 43
0.0
 38
10.0
 10
606207.1719000004
 20
961486.2344000005
 10
606199.6719000005
 20
961488.9063000008
 10
606206.1094000005
 20
961504.9375000001
 10
606208.4375000001
 20
961504.125
 10
606211.7030999996
 20
961512.2969000005
 10
606217.0312000001
 20
961510.4219000004
 10
606213.7030999996
 20
961502.0936999993
 10
606216.4062999999
 20
961501.1563000008
 10
606212.9530999996
 20
961492.2188000008
 10
606209.9844000004
 20
961493.2344000004
  0
LWPOLYLINE
  5
146
330
2
100
AcDbEntity
  8
CASE
100
AcDbPolyline
 90
        6
 70
     1
 43
0.0
 38
10.0
 10
605897.125
 20
961501.7344000005
 10
605887.9844000005
 20
961505.5155999996
 10
605889.2969000004
 20
961508.9063000008
 10
605886.6250000001
 20
961509.9844000006
 10
605888.8125
 20
961515.6250000001
 10
605900.7030999996
 20
961510.75
  0
LWPOLYLINE
  5
147
330
2
100
AcDbEntity
  8
CASE
100
AcDbPolyline
 90
        4
 70
     1
 43
0.0
 38
10.0
 10
605784.0938
 20
961173.7186999993
 10
605781.0780999997
 20
961184.4844000005
 10
605798.9062999999
 20
961190.1250000002
 10
605801.9219000005
 20
961179.3594000005
  0
LWPOLYLINE
  5
148
330
2
100
AcDbEntity
  8
CASE
100
AcDbPolyline
 90
        4
 70
     1
 43
0.0
 38
10.0
 10
605658.6913999999
 20
961173.6554000005
 10
605667.5780999996
 20
961192.1405999996
 10
605676.9934
 20
961187.2776999994
 10
605667.7592000003
 20
961169.2858000008
  0
LWPOLYLINE
  5
149
330
2
100
AcDbEntity
  8
CASE
100
AcDbPolyline
 90
        4
 70
     1
 43
0.0
 38
10.0
 10
606053.0447000004
 20
961517.8391999993
 10
606049.5939999996
 20
961509.0761999994
 10
606036.5469000004
 20
961514.3594000004
 10
606039.6129
 20
961523.1789999995
  0
LWPOLYLINE
  5
14A
330
2
100
AcDbEntity
  8
CASE
100
AcDbPolyline
 90
        8
 70
     1
 43
0.0
 38
10.0
 10
605873.6405999996
 20
961514.4063000009
 10
605860.7813
 20
961519.9375000001
 10
605863.4844000004
 20
961525.3280999997
 10
605865.7187999999
 20
961524.0313000008
 10
605868.25
 20
961529.1094000005
 10
605871.3280999995
 20
961527.3280999996
 10
605872.125
 20
961528.9844000004
 10
605879.5625000001
 20
961526.3280999997
  0
LWPOLYLINE
  5
14B
330
2
100
AcDbEntity
  8
CASE
100
AcDbPolyline
 90
        4
 70
     1
 43
0.0
 38
10.0
 10
606111.2969000005
 20
961226.5
 10
606110.4219000004
 20
961230.2344000005
 10
606122.7030999996
 20
961233.0
 10
606123.5155999995
 20
961229.2500000002
  0
LWPOLYLINE
  5
14C
330
2
100
AcDbEntity
  8
CASE
100
AcDbPolyline
 90
        9
 70
     1
 43
0.0
 38
10.0
 10
605734.5155999996
 20
961224.2344000005
 10
605708.5469000004
 20
961228.0
 10
605706.25
 20
961231.9219000005
 10
605714.4375
 20
961247.5469000004
 10
605722.7812000001
 20
961243.2188000008
 10
605719.4375
 20
961235.5780999997
 10
605726.5312999999
 20
961234.4688000007
 10
605727.9844000004
 20
961245.1094000006
 10
605737.0937000001
 20
961244.0
  0
LWPOLYLINE
  5
14D
330
2
100
AcDbEntity
  8
CASE
100
AcDbPolyline
 90
        6
 70
     1
 43
0.0
 38
10.0
 10
605909.4844000004
 20
961030.3594000004
 10
605907.625
 20
961036.8280999997
 10
605918.9062999999
 20
961040.2655999997
 10
605936.4219000005
 20
961045.5313000009
 10
605938.2655999996
 20
961039.1561999994
 10
605920.8280999996
 20
961033.8594000005
  0
LWPOLYLINE
  5
14E
330
2
100
AcDbEntity
  8
CASE
100
AcDbPolyline
 90
        5
 70
     1
 43
0.0
 38
10.0
 10
605688.7344000005
 20
961045.2186999992
 10
605696.2655999996
 20
961043.6875000001
 10
605695.4375
 20
961035.9530999996
 10
605679.375
 20
961038.6563000007
 10
605680.1405999996
 20
961046.7655999997
  0
LWPOLYLINE
  5
14F
330
2
100
AcDbEntity
  8
CASE
100
AcDbPolyline
 90
       10
 70
     1
 43
0.0
 38
10.0
 10
605881.0312000002
 20
961013.4844000006
 10
605869.4375
 20
961051.7969000005
 10
605894.7344000005
 20
961059.7030999997
 10
605896.9375
 20
961052.5938000009
 10
605894.9375
 20
961051.9686999992
 10
605896.4062000001
 20
961047.3280999997
 10
605883.5780999996
 20
961043.2344000004
 10
605884.875
 20
961038.8280999996
 10
605887.3594000004
 20
961039.5936999992
 10
605894.0780999996
 20
961017.5469000004
  0
LWPOLYLINE
  5
150
330
2
100
AcDbEntity
  8
CASE
100
AcDbPolyline
 90
        4
 70
     1
 43
0.0
 38
10.0
 10
606214.2030999996
 20
961085.8594000005
 10
606211.9687000001
 20
961078.4530999996
 10
606202.0312999999
 20
961081.3280999996
 10
606204.2187999999
 20
961088.7655999995
  0
LWPOLYLINE
  5
151
330
2
100
AcDbEntity
  8
CASE
100
AcDbPolyline
 90
        4
 70
     1
 43
0.0
 38
10.0
 10
605899.0937999999
 20
961109.4219000005
 10
605895.9530999995
 20
961118.7811999993
 10
605907.4062000001
 20
961122.8436999994
 10
605910.6719000005
 20
961113.5
  0
LWPOLYLINE
  5
152
330
2
100
AcDbEntity
  8
CASE
100
AcDbPolyline
 90
        4
 70
     1
 43
0.0
 38
10.0
 10
606219.5937000002
 20
961229.7030999997
 10
606204.6875
 20
961233.6094000005
 10
606207.1719000004
 20
961242.8280999997
 10
606222.2655999995
 20
961238.7344000005
  0
LWPOLYLINE
  5
153
330
2
100
AcDbEntity
  8
CASE
100
AcDbPolyline
 90
        6
 70
     1
 43
0.0
 38
10.0
 10
606196.3437999999
 20
961235.4530999997
 10
606189.9687000001
 20
961237.2186999992
 10
606190.8125
 20
961240.0780999998
 10
606192.8594000004
 20
961239.5625000001
 10
606194.1405999996
 20
961244.3438000008
 10
606198.4844000004
 20
961243.7030999997
  0
LWPOLYLINE
  5
154
330
2
100
AcDbEntity
  8
CASE
100
AcDbPolyline
 90
        6
 70
     1
 43
0.0
 38
10.0
 10
606192.8437999999
 20
961254.5780999996
 10
606190.4844000004
 20
961264.7188000009
 10
606201.4219000005
 20
961266.9375000001
 10
606203.0313
 20
961260.1561999994
 10
606201.2344000004
 20
961259.8436999993
 10
606202.1875
 20
961256.2500000001
  0
LWPOLYLINE
  5
155
330
2
100
AcDbEntity
  8
CASE
100
AcDbPolyline
 90
        4
 70
     1
 43
0.0
 38
10.0
 10
606047.0780999995
 20
961252.7969000005
 10
606044.1562999999
 20
961265.6405999997
 10
606066.2187999999
 20
961268.8280999996
 10
606069.25
 20
961256.2655999996
  0
LWPOLYLINE
  5
156
330
2
100
AcDbEntity
  8
CASE
100
AcDbPolyline
 90
        6
 70
     1
 43
0.0
 38
10.0
 10
605708.8280999995
 20
961049.0469000005
 10
605711.6249999999
 20
961048.7655999996
 10
605710.1875
 20
961034.6094000005
 10
605695.4375
 20
961035.9530999996
 10
605696.2655999996
 20
961043.6875000001
 10
605696.8437000001
 20
961050.4688000007
  0
LWPOLYLINE
  5
157
330
2
100
AcDbEntity
  8
CASE
100
AcDbPolyline
 90
        9
 70
     1
 43
0.0
 38
10.0
 10
605691.1094000004
 20
961132.5311999992
 10
605686.7969000005
 20
961133.2813000009
 10
605682.0780999996
 20
961134.1719000005
 10
605683.4063
 20
961145.2188000008
 10
605703.1562999999
 20
961141.6719000004
 10
605702.4063
 20
961136.5313000007
 10
605693.3280999996
 20
961138.2030999997
 10
605691.9844000004
 20
961138.4530999997
 10
605691.8438
 20
961137.6405999997
  0
LWPOLYLINE
  5
158
330
2
100
AcDbEntity
  8
CASE
100
AcDbPolyline
 90
       12
 70
     1
 43
0.0
 38
10.0
 10
606049.3280999995
 20
961166.2655999996
 10
606037.1094000004
 20
961170.6405999996
 10
606039.9219000004
 20
961178.1405999996
 10
606048.75
 20
961175.2186999993
 10
606054.7812999999
 20
961191.7655999995
 10
606045.7187999999
 20
961194.6719000005
 10
606048.4375
 20
961203.1563000009
 10
606061.1405999996
 20
961198.9063000008
 10
606059.4219000004
 20
961193.5625
 10
606066.375
 20
961191.4061999993
 10
606058.4219000005
 20
961169.0469000004
 10
606051.3437
 20
961171.4530999996
  0
LWPOLYLINE
  5
159
330
2
100
AcDbEntity
  8
CASE
100
AcDbPolyline
 90
        6
 70
     1
 43
0.0
 38
10.0
 10
605722.8594000005
 20
961202.8438000008
 10
605723.7344000004
 20
961208.7188000009
 10
605718.5625
 20
961209.3905999998
 10
605719.5625
 20
961216.5311999994
 10
605734.2344000004
 20
961214.7030999997
 10
605732.3905999997
 20
961201.6719000004
  0
LWPOLYLINE
  5
15A
330
2
100
AcDbEntity
  8
STRADE
100
AcDbPolyline
 90
        2
 70
     0
 43
14.0
 10
606451.8552278562
 20
961478.0935522018
 10
606660.5062494726
 20
961381.2989607531
  0
LWPOLYLINE
  5
15B
330
2
100
AcDbEntity
  8
CASE
100
AcDbPolyline
 90
        4
 70
     1
 43
0.0
 38
10.0
 10
606360.625
 20
961075.4530999997
 10
606344.8437999999
 20
961080.4375
 10
606348.0625
 20
961091.2344000006
 10
606363.6719000005
 20
961086.9375
  0
LWPOLYLINE
  5
15C
330
2
100
AcDbEntity
  8
STRADE
100
AcDbPolyline
 90
        4
 70
     0
 43
14.0
 10
606451.0339095371
 20
961475.6849050969
 10
606422.1201999998
 20
961391.0574999993
 10
606324.059547338
 20
961078.137494823
 10
606272.3450168479
 20
960913.1119651188
  0
ENDSEC
  0
SECTION
  2
OBJECTS
  0
DICTIONARY
  5
B
330
0
100
AcDbDictionary
281
     1
  3
ACAD_COLOR
350
45
  3
ACAD_GROUP
350
32
  3
ACAD_LAYOUT
350
18
  3
ACAD_MATERIAL
350
D
  3
ACAD_MLEADERSTYLE
350
48
  3
ACAD_MLINESTYLE
350
33
  3
ACAD_PLOTSETTINGS
350
34
  3
ACAD_PLOTSTYLENAME
350
A
  3
ACAD_SCALELIST
350
46
  3
ACAD_TABLESTYLE
350
47
  3
ACAD_VISUALSTYLE
350
2D
  3
ACDB_RECOMPOSE_DATA
350
160
  3
AcDbVariableDictionary
350
49
  0
DICTIONARY
  5
1E
330
1D
100
AcDbDictionary
280
     1
281
     1
  3
ACAD_LAYERSTATES
360
1F
  3
ACLYDICTIONARY
360
20
  0
DICTIONARY
  5
7
330
6
100
AcDbDictionary
280
     1
281
     1
  3
ADSK_XREC_LAYER_RECONCILED
360
8
  0
DICTIONARY
  5
3
330
2
100
AcDbDictionary
280
     1
281
     1
  3
ACAD_SORTENTS
360
15D
  0
DICTIONARY
  5
45
102
{ACAD_REACTORS
330
B
102
}
330
B
100
AcDbDictionary
281
     1
  0
DICTIONARY
  5
32
102
{ACAD_REACTORS
330
B
102
}
330
B
100
AcDbDictionary
281
     1
  0
DICTIONARY
  5
18
102
{ACAD_REACTORS
330
B
102
}
330
B
100
AcDbDictionary
281
     1
  3
Layout1
350
1C
  3
Model
350
17
  0
DICTIONARY
  5
D
102
{ACAD_REACTORS
330
B
102
}
330
B
100
AcDbDictionary
281
     1
  3
ByBlock
350
3D
  3
ByLayer
350
35
  3
Global
350
C
  0
DICTIONARY
  5
48
102
{ACAD_REACTORS
330
B
102
}
330
B
100
AcDbDictionary
281
     1
  0
DICTIONARY
  5
33
102
{ACAD_REACTORS
330
B
102
}
330
B
100
AcDbDictionary
281
     1
  3
Standard
350
57
  0
DICTIONARY
  5
34
102
{ACAD_REACTORS
330
B
102
}
330
B
100
AcDbDictionary
281
     1
  0
ACDBDICTIONARYWDFLT
  5
A
102
{ACAD_REACTORS
330
B
102
}
330
B
100
AcDbDictionary
281
     1
  3
Normal
350
9
100
AcDbDictionaryWithDefault
340
9
  0
DICTIONARY
  5
46
102
{ACAD_REACTORS
330
B
102
}
330
B
100
AcDbDictionary
281
     1
  3
*A1
350
5C
  3
A0
350
5D
  3
A1
350
5E
  3
A2
350
5F
  3
A3
350
60
  3
A4
350
61
  3
A5
350
62
  3
A6
350
63
  3
A7
350
64
  3
A8
350
65
  3
A9
350
66
  3
B0
350
67
  3
B1
350
68
  3
B2
350
69
  3
B3
350
6A
  3
B4
350
6B
  3
B5
350
6C
  3
B6
350
6D
  0
DICTIONARY
  5
47
102
{ACAD_REACTORS
330
B
102
}
330
B
100
AcDbDictionary
281
     1
  3
Standard
350
58
  0
DICTIONARY
  5
2D
102
{ACAD_REACTORS
330
B
102
}
330
B
100
AcDbDictionary
281
     1
  3
2dWireframe
350
2C
  3
Realistic
350
59
  3
Wireframe
350
5A
  0
XRECORD
  5
160
102
{ACAD_REACTORS
330
B
102
}
330
B
100
AcDbXrecord
280
     1
 90
        1
330
58
  0
DICTIONARY
  5
49
102
{ACAD_REACTORS
330
B
102
}
330
B
100
AcDbDictionary
281
     1
  3
CANNOSCALE
350
4A
  3
CMLEADERSTYLE
350
4B
  3
CTABLESTYLE
350
4C
  3
CVIEWDETAILSTYLE
350
4D
  3
CVIEWSECTIONSTYLE
350
4E
  3
LAYEREVAL
350
4F
  3
LAYERNOTIFY
350
50
  3
LIGHTINGUNITS
350
51
  3
MARKUPASSISTMODE
350
52
  3
MSLTSCALE
350
53
  0
DICTIONARY
  5
1F
102
{ACAD_REACTORS
330
1E
102
}
330
1E
100
AcDbDictionary
281
     1
  0
DICTIONARY
  5
20
102
{ACAD_REACTORS
330
1E
102
}
330
1E
100
AcDbDictionary
281
     1
1001
ACAD
1000
SDF-2016
  0
XRECORD
  5
8
102
{ACAD_REACTORS
330
7
102
}
330
7
100
AcDbXrecord
280
     1
290
     1
  0
SORTENTSTABLE
  5
15D
102
{ACAD_REACTORS
330
3
102
}
330
3
100
AcDbSortentsTable
330
2
331
6E
  5
15C
331
6F
  5
15B
331
70
  5
15A
331
72
  5
159
331
74
  5
158
331
75
  5
155
331
76
  5
154
331
78
  5
153
331
79
  5
152
331
7A
  5
151
331
7B
  5
150
331
7C
  5
14F
331
7D
  5
14E
331
7E
  5
14D
331
7F
  5
14C
331
80
  5
14A
331
81
  5
149
331
82
  5
148
331
83
  5
147
331
84
  5
146
331
85
  5
145
331
86
  5
144
331
87
  5
143
331
88
  5
142
331
89
  5
141
331
8A
  5
140
331
8B
  5
13F
331
8C
  5
13E
331
8D
  5
13D
331
8E
  5
13C
331
8F
  5
13B
331
90
  5
13A
331
91
  5
139
331
92
  5
138
331
93
  5
137
331
94
  5
136
331
95
  5
135
331
96
  5
134
331
97
  5
133
331
98
  5
132
331
99
  5
131
331
9A
  5
130
331
9B
  5
12F
331
9C
  5
12E
331
9D
  5
12D
331
9E
  5
12C
331
9F
  5
12B
331
A0
  5
12A
331
A1
  5
129
331
A2
  5
128
331
A3
  5
127
331
A4
  5
126
331
A5
  5
125
331
A6
  5
124
331
A7
  5
123
331
A8
  5
122
331
A9
  5
121
331
AA
  5
120
331
AB
  5
11F
331
AC
  5
11E
331
AD
  5
11D
331
AE
  5
11C
331
AF
  5
11B
331
B0
  5
11A
331
B1
  5
119
331
B2
  5
118
331
B3
  5
117
331
B4
  5
116
331
B5
  5
115
331
B6
  5
114
331
B7
  5
113
331
B8
  5
112
331
B9
  5
111
331
BA
  5
110
331
BB
  5
10F
331
BC
  5
10E
331
BD
  5
10D
331
BE
  5
10C
331
BF
  5
10B
331
C0
  5
10A
331
C1
  5
109
331
C2
  5
108
331
C3
  5
107
331
C4
  5
106
331
C5
  5
105
331
C6
  5
104
331
C7
  5
103
331
C8
  5
102
331
C9
  5
101
331
CA
  5
100
331
CB
  5
FF
331
CC
  5
FE
331
CD
  5
FD
331
CE
  5
FC
331
CF
  5
FB
331
D0
  5
FA
331
D1
  5
F9
331
D2
  5
F8
331
D3
  5
F7
331
D4
  5
F6
331
D5
  5
F5
331
D6
  5
F4
331
D7
  5
F3
331
D8
  5
F2
331
D9
  5
F1
331
DA
  5
F0
331
DB
  5
EF
331
DC
  5
EE
331
DD
  5
ED
331
DE
  5
EC
331
DF
  5
EB
331
E0
  5
EA
331
E1
  5
E9
331
E2
  5
E8
331
E3
  5
E7
331
E4
  5
E6
331
E6
  5
E4
331
E7
  5
E3
331
E8
  5
E2
331
E9
  5
E1
331
EA
  5
E0
331
EB
  5
DF
331
EC
  5
DE
331
ED
  5
DD
331
EE
  5
DC
331
EF
  5
DB
331
F0
  5
DA
331
F1
  5
D9
331
F2
  5
D8
331
F3
  5
D7
331
F4
  5
D6
331
F5
  5
D5
331
F6
  5
D4
331
F7
  5
D3
331
F8
  5
D2
331
F9
  5
D1
331
FA
  5
D0
331
FB
  5
CF
331
FC
  5
CE
331
FD
  5
CD
331
FE
  5
CC
331
FF
  5
CB
331
100
  5
CA
331
101
  5
C9
331
102
  5
C8
331
103
  5
C7
331
104
  5
C6
331
105
  5
C5
331
106
  5
C4
331
107
  5
C3
331
108
  5
C2
331
109
  5
C1
331
10A
  5
C0
331
10B
  5
BF
331
10C
  5
BE
331
10D
  5
BD
331
10E
  5
BC
331
10F
  5
BB
331
110
  5
BA
331
111
  5
B9
331
112
  5
B8
331
113
  5
B7
331
114
  5
B6
331
115
  5
B5
331
116
  5
B4
331
117
  5
B3
331
118
  5
B2
331
119
  5
B1
331
11A
  5
B0
331
11B
  5
AF
331
11C
  5
AE
331
11D
  5
AD
331
11E
  5
AC
331
11F
  5
AB
331
120
  5
AA
331
121
  5
A9
331
122
  5
A8
331
123
  5
A7
331
124
  5
A6
331
125
  5
A5
331
126
  5
A4
331
127
  5
A3
331
128
  5
A2
331
129
  5
A1
331
12A
  5
A0
331
12B
  5
9F
331
12C
  5
9E
331
12D
  5
9D
331
12E
  5
9C
331
12F
  5
9B
331
130
  5
9A
331
131
  5
99
331
132
  5
98
331
133
  5
97
331
134
  5
96
331
135
  5
95
331
136
  5
94
331
137
  5
93
331
138
  5
92
331
139
  5
91
331
13A
  5
90
331
13B
  5
8F
331
13C
  5
8E
331
13D
  5
8D
331
13E
  5
8C
331
13F
  5
8B
331
140
  5
8A
331
141
  5
89
331
142
  5
88
331
143
  5
87
331
144
  5
86
331
145
  5
85
331
146
  5
84
331
147
  5
83
331
148
  5
82
331
149
  5
81
331
14A
  5
80
331
14B
  5
7F
331
14C
  5
7E
331
14D
  5
7D
331
14E
  5
7C
331
14F
  5
7B
331
150
  5
7A
331
151
  5
79
331
152
  5
78
331
153
  5
76
331
154
  5
75
331
155
  5
74
331
156
  5
72
331
157
  5
70
331
158
  5
6F
331
159
  5
6E
331
15A
  5
156
331
15B
  5
14B
331
15C
  5
157
  0
LAYOUT
  5
1C
102
{ACAD_REACTORS
330
18
102
}
330
18
100
AcDbPlotSettings
  1

  2
none_device
  4

  6

 40
0.0
 41
0.0
 42
0.0
 43
0.0
 44
0.0
 45
0.0
 46
0.0
 47
0.0
 48
0.0
 49
0.0
140
0.0
141
0.0
142
1.0
143
1.0
 70
   688
 72
     0
 73
     0
 74
     5
  7

 75
    16
147
1.0
 76
     0
 77
     2
 78
   300
148
0.0
149
0.0
100
AcDbLayout
  1
Layout1
 70
     1
 71
     1
 10
0.0
 20
0.0
 11
12.0
 21
9.0
 12
0.0
 22
0.0
 32
0.0
 14
1.000000000000000E+20
 24
1.000000000000000E+20
 34
1.000000000000000E+20
 15
-1.000000000000000E+20
 25
-1.000000000000000E+20
 35
-1.000000000000000E+20
146
0.0
 13
0.0
 23
0.0
 33
0.0
 16
1.0
 26
0.0
 36
0.0
 17
0.0
 27
1.0
 37
0.0
 76
     0
330
19
  0
LAYOUT
  5
17
102
{ACAD_REACTORS
330
18
102
}
330
18
100
AcDbPlotSettings
  1

  2
none_device
  4

  6

 40
0.0
 41
0.0
 42
0.0
 43
0.0
 44
0.0
 45
0.0
 46
0.0
 47
0.0
 48
0.0
 49
0.0
140
0.0
141
0.0
142
1.0
143
1.0
 70
  1712
 72
     0
 73
     0
 74
     0
  7

 75
     0
147
1.0
 76
     0
 77
     2
 78
   300
148
0.0
149
0.0
100
AcDbLayout
  1
Model
 70
     1
 71
     0
 10
0.0
 20
0.0
 11
12.0
 21
9.0
 12
0.0
 22
0.0
 32
0.0
 14
1.000000000000000E+20
 24
1.000000000000000E+20
 34
1.000000000000000E+20
 15
-1.000000000000000E+20
 25
-1.000000000000000E+20
 35
-1.000000000000000E+20
146
0.0
 13
0.0
 23
0.0
 33
0.0
 16
1.0
 26
0.0
 36
0.0
 17
0.0
 27
1.0
 37
0.0
 76
     0
330
2
331
2B
  0
MATERIAL
  5
3D
102
{ACAD_XDICTIONARY
360
3E
102
}
102
{ACAD_REACTORS
330
D
102
}
330
D
100
AcDbMaterial
  1
ByBlock
 72
     0
 43
0.0208333333333333
 43
0.0
 43
0.0
 43
0.0
 43
0.0
 43
0.0208333333333333
 43
0.0
 43
0.0
 43
0.0
 43
0.0
 43
1.0
 43
0.0
 43
0.0
 43
0.0
 43
0.0
 43
1.0
 77
     0
 47
0.0208333333333333
 47
0.0
 47
0.0
 47
0.0
 47
0.0
 47
0.0208333333333333
 47
0.0
 47
0.0
 47
0.0
 47
0.0
 47
1.0
 47
0.0
 47
0.0
 47
0.0
 47
0.0
 47
1.0
171
     0
 49
0.0208333333333333
 49
0.0
 49
0.0
 49
0.0
 49
0.0
 49
0.0208333333333333
 49
0.0
 49
0.0
 49
0.0
 49
0.0
 49
1.0
 49
0.0
 49
0.0
 49
0.0
 49
0.0
 49
1.0
175
     0
142
0.0208333333333333
142
0.0
142
0.0
142
0.0
142
0.0
142
0.0208333333333333
142
0.0
142
0.0
142
0.0
142
0.0
142
1.0
142
0.0
142
0.0
142
0.0
142
0.0
142
1.0
179
     0
144
0.0208333333333333
144
0.0
144
0.0
144
0.0
144
0.0
144
0.0208333333333333
144
0.0
144
0.0
144
0.0
144
0.0
144
1.0
144
0.0
144
0.0
144
0.0
144
0.0
144
1.0
147
0.0208333333333333
147
0.0
147
0.0
147
0.0
147
0.0
147
0.0208333333333333
147
0.0
147
0.0
147
0.0
147
0.0
147
1.0
147
0.0
147
0.0
147
0.0
147
0.0
147
1.0
  0
MATERIAL
  5
35
102
{ACAD_XDICTIONARY
360
36
102
}
102
{ACAD_REACTORS
330
D
102
}
330
D
100
AcDbMaterial
  1
ByLayer
 72
     0
 43
0.0208333333333333
 43
0.0
 43
0.0
 43
0.0
 43
0.0
 43
0.0208333333333333
 43
0.0
 43
0.0
 43
0.0
 43
0.0
 43
1.0
 43
0.0
 43
0.0
 43
0.0
 43
0.0
 43
1.0
 77
     0
 47
0.0208333333333333
 47
0.0
 47
0.0
 47
0.0
 47
0.0
 47
0.0208333333333333
 47
0.0
 47
0.0
 47
0.0
 47
0.0
 47
1.0
 47
0.0
 47
0.0
 47
0.0
 47
0.0
 47
1.0
171
     0
 49
0.0208333333333333
 49
0.0
 49
0.0
 49
0.0
 49
0.0
 49
0.0208333333333333
 49
0.0
 49
0.0
 49
0.0
 49
0.0
 49
1.0
 49
0.0
 49
0.0
 49
0.0
 49
0.0
 49
1.0
175
     0
142
0.0208333333333333
142
0.0
142
0.0
142
0.0
142
0.0
142
0.0208333333333333
142
0.0
142
0.0
142
0.0
142
0.0
142
1.0
142
0.0
142
0.0
142
0.0
142
0.0
142
1.0
179
     0
144
0.0208333333333333
144
0.0
144
0.0
144
0.0
144
0.0
144
0.0208333333333333
144
0.0
144
0.0
144
0.0
144
0.0
144
1.0
144
0.0
144
0.0
144
0.0
144
0.0
144
1.0
147
0.0208333333333333
147
0.0
147
0.0
147
0.0
147
0.0
147
0.0208333333333333
147
0.0
147
0.0
147
0.0
147
0.0
147
1.0
147
0.0
147
0.0
147
0.0
147
0.0
147
1.0
  0
MATERIAL
  5
C
102
{ACAD_XDICTIONARY
360
E
102
}
102
{ACAD_REACTORS
330
D
102
}
330
D
100
AcDbMaterial
  1
Global
 72
     0
 43
0.0208333333333333
 43
0.0
 43
0.0
 43
0.0
 43
0.0
 43
0.0208333333333333
 43
0.0
 43
0.0
 43
0.0
 43
0.0
 43
1.0
 43
0.0
 43
0.0
 43
0.0
 43
0.0
 43
1.0
 77
     0
 47
0.0208333333333333
 47
0.0
 47
0.0
 47
0.0
 47
0.0
 47
0.0208333333333333
 47
0.0
 47
0.0
 47
0.0
 47
0.0
 47
1.0
 47
0.0
 47
0.0
 47
0.0
 47
0.0
 47
1.0
171
     0
 49
0.0208333333333333
 49
0.0
 49
0.0
 49
0.0
 49
0.0
 49
0.0208333333333333
 49
0.0
 49
0.0
 49
0.0
 49
0.0
 49
1.0
 49
0.0
 49
0.0
 49
0.0
 49
0.0
 49
1.0
175
     0
142
0.0208333333333333
142
0.0
142
0.0
142
0.0
142
0.0
142
0.0208333333333333
142
0.0
142
0.0
142
0.0
142
0.0
142
1.0
142
0.0
142
0.0
142
0.0
142
0.0
142
1.0
179
     0
144
0.0208333333333333
144
0.0
144
0.0
144
0.0
144
0.0
144
0.0208333333333333
144
0.0
144
0.0
144
0.0
144
0.0
144
1.0
144
0.0
144
0.0
144
0.0
144
0.0
144
1.0
147
0.0208333333333333
147
0.0
147
0.0
147
0.0
147
0.0
147
0.0208333333333333
147
0.0
147
0.0
147
0.0
147
0.0
147
1.0
147
0.0
147
0.0
147
0.0
147
0.0
147
1.0
  0
MLINESTYLE
  5
57
102
{ACAD_REACTORS
330
33
102
}
330
33
100
AcDbMlineStyle
  2
STANDARD
 70
     0
  3

 62
   256
 51
90.0
 52
90.0
 71
     2
 49
0.5
 62
   256
  6
BYLAYER
 49
-0.5
 62
   256
  6
BYLAYER
  0
ACDBPLACEHOLDER
  5
9
102
{ACAD_REACTORS
330
A
102
}
330
A
  0
SCALE
  5
5C
102
{ACAD_REACTORS
330
46
102
}
330
46
100
AcDbScale
 70
     0
300
1" = 1'
140
1.0
141
1.0
290
     0
  0
SCALE
  5
5D
102
{ACAD_REACTORS
330
46
102
}
330
46
100
AcDbScale
 70
     0
300
1:1
140
1.0
141
1.0
290
     1
  0
SCALE
  5
5E
102
{ACAD_REACTORS
330
46
102
}
330
46
100
AcDbScale
 70
     0
300
1/128" = 1'-0"
140
0.0078125
141
12.0
290
     0
  0
SCALE
  5
5F
102
{ACAD_REACTORS
330
46
102
}
330
46
100
AcDbScale
 70
     0
300
1/64" = 1'-0"
140
0.015625
141
12.0
290
     0
  0
SCALE
  5
60
102
{ACAD_REACTORS
330
46
102
}
330
46
100
AcDbScale
 70
     0
300
1/32" = 1'-0"
140
0.03125
141
12.0
290
     0
  0
SCALE
  5
61
102
{ACAD_REACTORS
330
46
102
}
330
46
100
AcDbScale
 70
     0
300
1/16" = 1'-0"
140
0.0625
141
12.0
290
     0
  0
SCALE
  5
62
102
{ACAD_REACTORS
330
46
102
}
330
46
100
AcDbScale
 70
     0
300
3/32" = 1'-0"
140
0.09375
141
12.0
290
     0
  0
SCALE
  5
63
102
{ACAD_REACTORS
330
46
102
}
330
46
100
AcDbScale
 70
     0
300
1/8" = 1'-0"
140
0.125
141
12.0
290
     0
  0
SCALE
  5
64
102
{ACAD_REACTORS
330
46
102
}
330
46
100
AcDbScale
 70
     0
300
3/16" = 1'-0"
140
0.1875
141
12.0
290
     0
  0
SCALE
  5
65
102
{ACAD_REACTORS
330
46
102
}
330
46
100
AcDbScale
 70
     0
300
1/4" = 1'-0"
140
0.25
141
12.0
290
     0
  0
SCALE
  5
66
102
{ACAD_REACTORS
330
46
102
}
330
46
100
AcDbScale
 70
     0
300
3/8" = 1'-0"
140
0.375
141
12.0
290
     0
  0
SCALE
  5
67
102
{ACAD_REACTORS
330
46
102
}
330
46
100
AcDbScale
 70
     0
300
1/2" = 1'-0"
140
0.5
141
12.0
290
     0
  0
SCALE
  5
68
102
{ACAD_REACTORS
330
46
102
}
330
46
100
AcDbScale
 70
     0
300
3/4" = 1'-0"
140
0.75
141
12.0
290
     0
  0
SCALE
  5
69
102
{ACAD_REACTORS
330
46
102
}
330
46
100
AcDbScale
 70
     0
300
1" = 1'-0"
140
1.0
141
12.0
290
     0
  0
SCALE
  5
6A
102
{ACAD_REACTORS
330
46
102
}
330
46
100
AcDbScale
 70
     0
300
1-1/2" = 1'-0"
140
1.5
141
12.0
290
     0
  0
SCALE
  5
6B
102
{ACAD_REACTORS
330
46
102
}
330
46
100
AcDbScale
 70
     0
300
3" = 1'-0"
140
3.0
141
12.0
290
     0
  0
SCALE
  5
6C
102
{ACAD_REACTORS
330
46
102
}
330
46
100
AcDbScale
 70
     0
300
6" = 1'-0"
140
6.0
141
12.0
290
     0
  0
SCALE
  5
6D
102
{ACAD_REACTORS
330
46
102
}
330
46
100
AcDbScale
 70
     0
300
1'-0" = 1'-0"
140
12.0
141
12.0
290
     0
  0
TABLESTYLE
  5
58
102
{ACAD_XDICTIONARY
360
15E
102
}
102
{ACAD_REACTORS
330
47
102
}
330
47
100
AcDbTableStyle
280
     0
  3
Standard
 70
     0
 71
     0
 40
0.06
 41
0.06
280
     0
281
     0
  7
Standard
140
0.18
170
     2
 62
     0
 63
     7
283
     0
 90
        4
 91
        0
  1

274
    -2
284
     1
 64
     0
275
    -2
285
     1
 65
     0
276
    -2
286
     1
 66
     0
277
    -2
287
     1
 67
     0
278
    -2
288
     1
 68
     0
279
    -2
289
     1
 69
     0
  7
Standard
140
0.25
170
     5
 62
     0
 63
     7
283
     0
 90
        4
 91
        0
  1

274
    -2
284
     1
 64
     0
275
    -2
285
     1
 65
     0
276
    -2
286
     1
 66
     0
277
    -2
287
     1
 67
     0
278
    -2
288
     1
 68
     0
279
    -2
289
     1
 69
     0
  7
Standard
140
0.18
170
     5
 62
     0
 63
     7
283
     0
 90
        4
 91
        0
  1

274
    -2
284
     1
 64
     0
275
    -2
285
     1
 65
     0
276
    -2
286
     1
 66
     0
277
    -2
287
     1
 67
     0
278
    -2
288
     1
 68
     0
279
    -2
289
     1
 69
     0
  0
VISUALSTYLE
  5
2C
102
{ACAD_REACTORS
330
2D
102
}
330
2D
100
AcDbVisualStyle
  2
2dWireframe
 70
     4
177
     3
291
     0
 70
    58
 90
        0
176
     1
 90
        2
176
     1
 90
        0
176
     1
 90
        0
176
     1
 40
0.6
176
     1
 40
30.0
176
     1
 62
     7
420
 16777215
176
     1
 90
        1
176
     1
 90
        4
176
     1
 62
     7
176
     1
 62
   257
176
     1
 90
        1
176
     1
 90
        1
176
     1
 40
1.0
176
     1
 90
        0
176
     1
 62
   257
176
     1
 40
1.0
176
     1
 90
        1
176
     1
 90
        6
176
     1
 90
        2
176
     1
 62
     7
176
     1
 90
        5
176
     1
 90
        0
176
     1
 90
        0
176
     1
290
     0
176
     1
 90
        1
176
     1
 40
0.0
176
     1
 90
        0
176
     1
290
     1
176
     1
290
     1
176
     1
290
     0
176
     1
290
     0
176
     1
290
     0
176
     1
290
     0
176
     1
290
     0
176
     1
290
     0
176
     1
290
     0
176
     1
 90
       50
176
     1
 40
0.0
176
     1
 40
1.0
176
     1
 90
        0
176
     1
 62
    18
420
        0
176
     1
 90
       50
176
     1
 90
        3
176
     1
 62
     5
420
      255
176
     1
290
     0
176
     1
 90
       50
176
     1
 90
       50
176
     1
 90
       50
176
     1
290
     0
176
     1
 90
       50
176
     1
 62
   256
176
     0
 40
1.0
176
     0
 90
        2
176
     1
  1
strokes_ogs.tif
176
     1
290
     0
176
     1
 40
1.0
176
     1
 40
1.0
176
     1
  0
VISUALSTYLE
  5
59
102
{ACAD_REACTORS
330
2D
102
}
330
2D
100
AcDbVisualStyle
  2
Realistic
 70
     8
177
     3
291
     0
 70
    58
 90
        2
176
     1
 90
        3
176
     1
 90
        0
176
     1
 90
        2
176
     1
 40
0.6
176
     1
 40
30.0
176
     1
 62
     7
420
 16777215
176
     1
 90
        0
176
     1
 90
        0
176
     1
 62
     7
176
     1
 62
   257
176
     1
 90
        1
176
     1
 90
        1
176
     1
 40
1.0
176
     1
 90
        8
176
     1
 62
   257
176
     1
 40
1.0
176
     1
 90
        1
176
     1
 90
        6
176
     1
 90
        2
176
     1
 62
     7
176
     1
 90
        3
176
     1
 90
        0
176
     1
 90
        0
176
     1
290
     0
176
     1
 90
       13
176
     1
 40
0.0
176
     1
 90
        0
176
     1
290
     0
176
     1
290
     1
176
     1
290
     1
176
     1
290
     0
176
     1
290
     0
176
     1
290
     0
176
     1
290
     0
176
     1
290
     0
176
     1
290
     0
176
     1
 90
       50
176
     1
 40
0.0
176
     1
 40
1.0
176
     1
 90
        0
176
     1
 62
    18
420
        0
176
     1
 90
       50
176
     1
 90
        3
176
     1
 62
     5
420
      255
176
     1
290
     0
176
     1
 90
       50
176
     1
 90
       50
176
     1
 90
       50
176
     1
290
     0
176
     1
 90
       50
176
     1
 62
   256
176
     0
 40
1.0
176
     0
 90
        2
176
     1
  1
strokes_ogs.tif
176
     1
290
     0
176
     1
 40
1.0
176
     1
 40
1.0
176
     1
  0
VISUALSTYLE
  5
5A
102
{ACAD_REACTORS
330
2D
102
}
330
2D
100
AcDbVisualStyle
  2
Wireframe
 70
     5
177
     3
291
     0
 70
    58
 90
        0
176
     1
 90
        2
176
     1
 90
        0
176
     1
 90
        0
176
     1
 40
0.6
176
     1
 40
30.0
176
     1
 62
     7
420
 16777215
176
     1
 90
        1
176
     1
 90
        4
176
     1
 62
     7
176
     1
 62
   257
176
     1
 90
        1
176
     1
 90
        1
176
     1
 40
1.0
176
     1
 90
        0
176
     1
 62
   257
176
     1
 40
1.0
176
     1
 90
        1
176
     1
 90
        6
176
     1
 90
        2
176
     1
 62
     7
176
     1
 90
        3
176
     1
 90
        0
176
     1
 90
        0
176
     1
290
     0
176
     1
 90
        1
176
     1
 40
0.0
176
     1
 90
        0
176
     1
290
     0
176
     1
290
     1
176
     1
290
     1
176
     1
290
     0
176
     1
290
     0
176
     1
290
     0
176
     1
290
     0
176
     1
290
     0
176
     1
290
     0
176
     1
 90
       50
176
     1
 40
0.0
176
     1
 40
1.0
176
     1
 90
        0
176
     1
 62
    18
420
        0
176
     1
 90
       50
176
     1
 90
        3
176
     1
 62
     5
420
      255
176
     1
290
     0
176
     1
 90
       50
176
     1
 90
       50
176
     1
 90
       50
176
     1
290
     0
176
     1
 90
       50
176
     1
 62
   256
176
     0
 40
1.0
176
     0
 90
        2
176
     1
  1
strokes_ogs.tif
176
     1
290
     0
176
     1
 40
1.0
176
     1
 40
1.0
176
     1
  0
DICTIONARYVAR
  5
4A
102
{ACAD_REACTORS
330
49
102
}
330
49
100
DictionaryVariables
280
     0
  1
1:1
  0
DICTIONARYVAR
  5
4B
102
{ACAD_REACTORS
330
49
102
}
330
49
100
DictionaryVariables
280
     0
  1
STANDARD
  0
DICTIONARYVAR
  5
4C
102
{ACAD_REACTORS
330
49
102
}
330
49
100
DictionaryVariables
280
     0
  1
STANDARD
  0
DICTIONARYVAR
  5
4D
102
{ACAD_REACTORS
330
49
102
}
330
49
100
DictionaryVariables
280
     0
  1

  0
DICTIONARYVAR
  5
4E
102
{ACAD_REACTORS
330
49
102
}
330
49
100
DictionaryVariables
280
     0
  1

  0
DICTIONARYVAR
  5
4F
102
{ACAD_REACTORS
330
49
102
}
330
49
100
DictionaryVariables
280
     0
  1
1
  0
DICTIONARYVAR
  5
50
102
{ACAD_REACTORS
330
49
102
}
330
49
100
DictionaryVariables
280
     0
  1
15
  0
DICTIONARYVAR
  5
51
102
{ACAD_REACTORS
330
49
102
}
330
49
100
DictionaryVariables
280
     0
  1
0
  0
DICTIONARYVAR
  5
52
102
{ACAD_REACTORS
330
49
102
}
330
49
100
DictionaryVariables
280
     0
  1
0
  0
DICTIONARYVAR
  5
53
102
{ACAD_REACTORS
330
49
102
}
330
49
100
DictionaryVariables
280
     0
  1
0
  0
DICTIONARY
  5
3E
330
3D
100
AcDbDictionary
280
     1
281
     1
  3
BUMPTILE
360
3F
  3
DIFFUSETILE
360
40
  3
OPACITYTILE
360
41
  3
REFLECTIONTILE
360
42
  3
REFRACTIONTILE
360
43
  3
SPECULARTILE
360
44
  0
DICTIONARY
  5
36
330
35
100
AcDbDictionary
280
     1
281
     1
  3
BUMPTILE
360
37
  3
DIFFUSETILE
360
38
  3
OPACITYTILE
360
39
  3
REFLECTIONTILE
360
3A
  3
REFRACTIONTILE
360
3B
  3
SPECULARTILE
360
3C
  0
DICTIONARY
  5
E
330
C
100
AcDbDictionary
280
     1
281
     1
  3
BUMPTILE
360
F
  3
DIFFUSETILE
360
10
  3
OPACITYTILE
360
11
  3
REFLECTIONTILE
360
12
  3
REFRACTIONTILE
360
13
  3
SPECULARTILE
360
14
  0
DICTIONARY
  5
15E
330
58
100
AcDbDictionary
280
     1
281
     1
  3
ACAD_ROUNDTRIP_2008_TABLESTYLE_CELLSTYLEMAP
360
15F
  0
XRECORD
  5
3F
102
{ACAD_REACTORS
330
3E
102
}
330
3E
100
AcDbXrecord
280
     1
270
     1
271
     1
  0
XRECORD
  5
40
102
{ACAD_REACTORS
330
3E
102
}
330
3E
100
AcDbXrecord
280
     1
270
     1
271
     1
  0
XRECORD
  5
41
102
{ACAD_REACTORS
330
3E
102
}
330
3E
100
AcDbXrecord
280
     1
270
     1
271
     1
  0
XRECORD
  5
42
102
{ACAD_REACTORS
330
3E
102
}
330
3E
100
AcDbXrecord
280
     1
270
     1
271
     1
  0
XRECORD
  5
43
102
{ACAD_REACTORS
330
3E
102
}
330
3E
100
AcDbXrecord
280
     1
270
     1
271
     1
  0
XRECORD
  5
44
102
{ACAD_REACTORS
330
3E
102
}
330
3E
100
AcDbXrecord
280
     1
270
     1
271
     1
  0
XRECORD
  5
37
102
{ACAD_REACTORS
330
36
102
}
330
36
100
AcDbXrecord
280
     1
270
     1
271
     1
  0
XRECORD
  5
38
102
{ACAD_REACTORS
330
36
102
}
330
36
100
AcDbXrecord
280
     1
270
     1
271
     1
  0
XRECORD
  5
39
102
{ACAD_REACTORS
330
36
102
}
330
36
100
AcDbXrecord
280
     1
270
     1
271
     1
  0
XRECORD
  5
3A
102
{ACAD_REACTORS
330
36
102
}
330
36
100
AcDbXrecord
280
     1
270
     1
271
     1
  0
XRECORD
  5
3B
102
{ACAD_REACTORS
330
36
102
}
330
36
100
AcDbXrecord
280
     1
270
     1
271
     1
  0
XRECORD
  5
3C
102
{ACAD_REACTORS
330
36
102
}
330
36
100
AcDbXrecord
280
     1
270
     1
271
     1
  0
XRECORD
  5
F
102
{ACAD_REACTORS
330
E
102
}
330
E
100
AcDbXrecord
280
     1
270
     1
271
     1
  0
XRECORD
  5
10
102
{ACAD_REACTORS
330
E
102
}
330
E
100
AcDbXrecord
280
     1
270
     1
271
     1
  0
XRECORD
  5
11
102
{ACAD_REACTORS
330
E
102
}
330
E
100
AcDbXrecord
280
     1
270
     1
271
     1
  0
XRECORD
  5
12
102
{ACAD_REACTORS
330
E
102
}
330
E
100
AcDbXrecord
280
     1
270
     1
271
     1
  0
XRECORD
  5
13
102
{ACAD_REACTORS
330
E
102
}
330
E
100
AcDbXrecord
280
     1
270
     1
271
     1
  0
XRECORD
  5
14
102
{ACAD_REACTORS
330
E
102
}
330
E
100
AcDbXrecord
280
     1
270
     1
271
     1
  0
CELLSTYLEMAP
  5
15F
102
{ACAD_REACTORS
330
15E
102
}
330
15E
100
AcDbCellStyleMap
 90
        3
300
CELLSTYLE
  1
TABLEFORMAT_BEGIN
 90
        5
170
     1
 91
        0
 92
    32768
 62
   257
 93
        1
300
CONTENTFORMAT
  1
CONTENTFORMAT_BEGIN
 90
        0
 91
        0
 92
        4
 93
        0
300

 40
0.0
140
1.0
 94
        5
 62
     0
340
23
144
0.25
309
CONTENTFORMAT_END
171
     0
 94
        6
 95
        1
302
GRIDFORMAT
  1
GRIDFORMAT_BEGIN
 90
        0
 91
        1
 62
     0
 92
       -2
340
0
 93
        0
 40
0.045
309
GRIDFORMAT_END
 95
        2
302
GRIDFORMAT
  1
GRIDFORMAT_BEGIN
 90
        0
 91
        1
 62
     0
 92
       -2
340
0
 93
        0
 40
0.045
309
GRIDFORMAT_END
 95
        4
302
GRIDFORMAT
  1
GRIDFORMAT_BEGIN
 90
        0
 91
        1
 62
     0
 92
       -2
340
0
 93
        0
 40
0.045
309
GRIDFORMAT_END
 95
        8
302
GRIDFORMAT
  1
GRIDFORMAT_BEGIN
 90
        0
 91
        1
 62
     0
 92
       -2
340
0
 93
        0
 40
0.045
309
GRIDFORMAT_END
 95
       16
302
GRIDFORMAT
  1
GRIDFORMAT_BEGIN
 90
        0
 91
        1
 62
     0
 92
       -2
340
0
 93
        0
 40
0.045
309
GRIDFORMAT_END
 95
       32
302
GRIDFORMAT
  1
GRIDFORMAT_BEGIN
 90
        0
 91
        1
 62
     0
 92
       -2
340
0
 93
        0
 40
0.045
309
GRIDFORMAT_END
309
TABLEFORMAT_END
  1
CELLSTYLE_BEGIN
 90
        1
 91
        1
300
_TITLE
309
CELLSTYLE_END
300
CELLSTYLE
  1
TABLEFORMAT_BEGIN
 90
        5
170
     1
 91
        0
 92
        0
 62
   257
 93
        1
300
CONTENTFORMAT
  1
CONTENTFORMAT_BEGIN
 90
        0
 91
        0
 92
        4
 93
        0
300

 40
0.0
140
1.0
 94
        5
 62
     0
340
23
144
0.18
309
CONTENTFORMAT_END
171
     0
 94
        6
 95
        1
302
GRIDFORMAT
  1
GRIDFORMAT_BEGIN
 90
        0
 91
        1
 62
     0
 92
       -2
340
0
 93
        0
 40
0.045
309
GRIDFORMAT_END
 95
        2
302
GRIDFORMAT
  1
GRIDFORMAT_BEGIN
 90
        0
 91
        1
 62
     0
 92
       -2
340
0
 93
        0
 40
0.045
309
GRIDFORMAT_END
 95
        4
302
GRIDFORMAT
  1
GRIDFORMAT_BEGIN
 90
        0
 91
        1
 62
     0
 92
       -2
340
0
 93
        0
 40
0.045
309
GRIDFORMAT_END
 95
        8
302
GRIDFORMAT
  1
GRIDFORMAT_BEGIN
 90
        0
 91
        1
 62
     0
 92
       -2
340
0
 93
        0
 40
0.045
309
GRIDFORMAT_END
 95
       16
302
GRIDFORMAT
  1
GRIDFORMAT_BEGIN
 90
        0
 91
        1
 62
     0
 92
       -2
340
0
 93
        0
 40
0.045
309
GRIDFORMAT_END
 95
       32
302
GRIDFORMAT
  1
GRIDFORMAT_BEGIN
 90
        0
 91
        1
 62
     0
 92
       -2
340
0
 93
        0
 40
0.045
309
GRIDFORMAT_END
309
TABLEFORMAT_END
  1
CELLSTYLE_BEGIN
 90
        2
 91
        1
300
_HEADER
309
CELLSTYLE_END
300
CELLSTYLE
  1
TABLEFORMAT_BEGIN
 90
        5
170
     1
 91
        0
 92
        0
 62
   257
 93
        1
300
CONTENTFORMAT
  1
CONTENTFORMAT_BEGIN
 90
        0
 91
        0
 92
        4
 93
        0
300

 40
0.0
140
1.0
 94
        2
 62
     0
340
23
144
0.18
309
CONTENTFORMAT_END
171
     0
 94
        6
 95
        1
302
GRIDFORMAT
  1
GRIDFORMAT_BEGIN
 90
        0
 91
        1
 62
     0
 92
       -2
340
0
 93
        0
 40
0.045
309
GRIDFORMAT_END
 95
        2
302
GRIDFORMAT
  1
GRIDFORMAT_BEGIN
 90
        0
 91
        1
 62
     0
 92
       -2
340
0
 93
        0
 40
0.045
309
GRIDFORMAT_END
 95
        4
302
GRIDFORMAT
  1
GRIDFORMAT_BEGIN
 90
        0
 91
        1
 62
     0
 92
       -2
340
0
 93
        0
 40
0.045
309
GRIDFORMAT_END
 95
        8
302
GRIDFORMAT
  1
GRIDFORMAT_BEGIN
 90
        0
 91
        1
 62
     0
 92
       -2
340
0
 93
        0
 40
0.045
309
GRIDFORMAT_END
 95
       16
302
GRIDFORMAT
  1
GRIDFORMAT_BEGIN
 90
        0
 91
        1
 62
     0
 92
       -2
340
0
 93
        0
 40
0.045
309
GRIDFORMAT_END
 95
       32
302
GRIDFORMAT
  1
GRIDFORMAT_BEGIN
 90
        0
 91
        1
 62
     0
 92
       -2
340
0
 93
        0
 40
0.045
309
GRIDFORMAT_END
309
TABLEFORMAT_END
  1
CELLSTYLE_BEGIN
 90
        3
 91
        2
300
_DATA
309
CELLSTYLE_END
  0
ENDSEC
  0
SECTION
  2
ACDSDATA
 70
     2
 71
     8
  0
ACDSSCHEMA
 90
        0
  1
AcDb_Thumbnail_Schema
  2
AcDbDs::ID
280
    10
 91
        8
  2
Thumbnail_Data
280
    15
 91
        0
101
ACDSRECORD
 95
        0
 90
        1
  2
AcDbDs::TreatedAsObjectData
280
     1
291
     1
101
ACDSRECORD
 95
        0
 90
        2
  2
AcDbDs::Legacy
280
     1
291
     1
101
ACDSRECORD
  1
AcDbDs::ID
 90
        3
  2
AcDs:Indexable
280
     1
291
     1
101
ACDSRECORD
  1
AcDbDs::ID
 90
        4
  2
AcDbDs::HandleAttribute
280
     7
282
     1
  0
ACDSSCHEMA
 90
        1
  1
AcDbDs::TreatedAsObjectDataSchema
  2
AcDbDs::TreatedAsObjectData
280
     1
 91
        0
  0
ACDSSCHEMA
 90
        2
  1
AcDbDs::LegacySchema
  2
AcDbDs::Legacy
280
     1
 91
        0
  0
ACDSSCHEMA
 90
        3
  1
AcDbDs::IndexedPropertySchema
  2
AcDs:Indexable
280
     1
 91
        0
  0
ACDSSCHEMA
 90
        4
  1
AcDbDs::HandleAttributeSchema
  2
AcDbDs::HandleAttribute
280
     7
 91
        1
284
     1
  0
ACDSRECORD
 90
        0
  2
AcDbDs::ID
280
    10
320
17
  2
Thumbnail_Data
280
    15
 94
     8955
310
89504E470D0A1A0A0000000D49484452000001000000008E0803000000E961264800000300504C5445FFFFFF000000C8C8C80000000000000000000000000000000000000000000000000000330000660000990000CC0000FF0033000033330033660033990033CC0033FF0066000066330066660066990066CC0066FF0099
310
000099330099660099990099CC0099FF00CC0000CC3300CC6600CC9900CCCC00CCFF00FF0000FF3300FF6600FF9900FFCC00FFFF3300003300333300663300993300CC3300FF3333003333333333663333993333CC3333FF3366003366333366663366993366CC3366FF3399003399333399663399993399CC3399FF33CC00
310
33CC3333CC6633CC9933CCCC33CCFF33FF0033FF3333FF6633FF9933FFCC33FFFF6600006600336600666600996600CC6600FF6633006633336633666633996633CC6633FF6666006666336666666666996666CC6666FF6699006699336699666699996699CC6699FF66CC0066CC3366CC6666CC9966CCCC66CCFF66FF0066
310
FF3366FF6666FF9966FFCC66FFFF9900009900339900669900999900CC9900FF9933009933339933669933999933CC9933FF9966009966339966669966999966CC9966FF9999009999339999669999999999CC9999FF99CC0099CC3399CC6699CC9999CCCC99CCFF99FF0099FF3399FF6699FF9999FFCC99FFFFCC0000CC00
310
33CC0066CC0099CC00CCCC00FFCC3300CC3333CC3366CC3399CC33CCCC33FFCC6600CC6633CC6666CC6699CC66CCCC66FFCC9900CC9933CC9966CC9999CC99CCCC99FFCCCC00CCCC33CCCC66CCCC99CCCCCCCCCCFFCCFF00CCFF33CCFF66CCFF99CCFFCCCCFFFFFF0000FF0033FF0066FF0099FF00CCFF00FFFF3300FF3333
310
FF3366FF3399FF33CCFF33FFFF6600FF6633FF6666FF6699FF66CCFF66FFFF9900FF9933FF9966FF9999FF99CCFF99FFFFCC00FFCC33FFCC66FFCC99FFCCCCFFCCFFFFFF00FFFF33FFFF66FFFF99FFFFCCFFFFFF0000000D0D0D1A1A1A2828283535354343435050505D5D5D6B6B6B787878868686939393A1A1A1AEAEAEBB
310
BBBBC9C9C9D6D6D6E4E4E4F1F1F1FFFFFF000000000000000000000000000000000000000000000000000000000000B0E2D23500001DDB4944415478DAD55DC9B51C39AEA507B98409B94A6F420B3E2B6A951E945B38F2008E3C233A888900C88854FF532DD57FD52DE94D99C11B182F8668EDF77F005223FDF7F9AFF3A301
310
E8B7E46F42FE68E7FF9AFFA07E8D3FE6D7CFDFEFEFF7F8CE5FEDFFC907E038B45D3DFF93403FD7F3F367E1BCAD776274D03E9ABD42332CC34FFFBB3FF432F9007C7EEAE7D1280A821C89C68D0D0098948CA3028B4E3C7F85EC5F0F004B01C91FA0E721A2F4A31300EAE9BB0C807E41852880F0FD2F3FBF4BBF0A8040C19FC3
310
FAC37ACACE28E92F9C2640AC88094185E0DF2C07E897FD7EBF4D00AE01303521F99EFEDB00F0D72A18B4BFFEB520C865E9D58A18C3B0007CFEB603E0B40559CACFF3032D36D065EA8320C09F06804EDBF6E69BAFD74E3405600F40F08F53332EDFE1030600F087CF1F8456FE866B00E00A80AD7CFBC9A3C08C90E248AFF9F8
310
B3169072101000F8FA5500C6E97710244D312D238DA0344CFA7E3C1EF06701E81303B36E02C06A021800F9D12400A062D03E62C09275BEA929039DB7FFF5E710E018B8D38C024405FE6B00F48CAEE2C5221439403CC3A8A17BAC7FA70D78BCFE980000B5568D403601D99B3100AB091043EA18202ED62EBECC903AEC0C403F
310
0606AFC71FB380EEBC431403946D60746B5B00906AC4D88653A940D84F1D0C008B423BDEED3D00803F660028D8A6028005FBA441D279A8D3847F06E0FC377BD5F1E3F476C5A0212244C7812EFD2A3903813FA204A8B15F09E1413321350151006898BB0A0096E05F901410DFA21A2C0D0381F1151433285240A283AF877CFC
310
D66871E62834AF84EC6C0EC33CDC305F3B00A0E59F0A68CE576686008FF3D85300BABEE9D0ADD7EB355EF51B7FA70158FDD50CF2D5D23B0C705A6E1680569D807CD121A0E2F3E45FEF1FE34324619C9DFFDD83731808FCD6A07013BC7A1CD4221B34F33B12CF5D00200CA96408FAE49308EF79E8DE198171FE5300927F1C08
310
BC7E1F024CE12CC69B6F9A2736B0F01B2E000D76A8B4A94AE9F7C6C7B8FFC400887BA01FD892869D827722709353FCE349F0CA5D681C4449CCA9DEEB281CA2CE6DE5C3166C59057E4800A4BAD028DB8B81C06F0200103570C9798A0310EE72BB0160C4D1585E63CF07C8C731F03ADAF9DFD1128DA8289C3A40FF1B798FEE45
310
0C91011025D793E1C504446B97B039653ADD70B702164B1400CE28B81D2A8347A515E07F03C0795C8810E02E7DF74B8169026A18B0988040A8CC7307C7AA5F25CD7E0F16809E94B0252BF0827F1600894435DE756ABF49424A3B1018000DDD5600DA0E80E2FA9236D9178FA900FE81998A1F609DA1C03F6A034CCBE40FB3D9
310
A8B7CB2275CA180C00BA32DD1900840C00AD00046E3CA9F719FF73550547FA63C8651FC049D16B6521FFEF1F7FFDA518F379BF8CF25542CFA27003621254E3DE0C038158CE160080A90CD8AA0F104E3958438D7E3800E0F72527D728C45F4303E89F030095C06D5F33D9691A9B850CE8BC1C10138106C07997FAF83240AEF7
310
604B0010659230AB822BC4B8FD23882471192C00C2239738FC7CD1D30BC22F88F52F1F3F117D02C0F8EFCBEDB3E83C70C42B180003E0863E2AC802C00CA8574278DEFE53F55BE7C34BFA73E837D7833000BF7EB20F3F0425BE75B7A49F68A81E931A05416FA97E63BE5FB4090180E4EB82099C3E41BCDD70011C04E85B17E2
310
8453905F9000F885FA42625D29DF7C2FFBE87B42BC01820165BA1EAC7488E18C909C600AFF5782657A44A7E0DF89203273C8917091014E92891E1380EF7E0F01BA938FC18D711C2A0DBB7815668AF415B31D8BF63165BB660266485C9D01AD0512A4AD9743CF88DB9AA03D84A837EA18701A6EB9A2CCB12796274419D304FA
310
E7D194996147489FDA4BB0EF0C266082890B0390BF102563E4BF7D0991873C08393A08810AC043FDC340E031CCD583195572140E71E57FFD158F9F9C50B9FD3356F3D2F7F4EC3023C46443DE4333F01D01583CE32621CA3176CB867FD618876A8C8BD900F07851738E6660F018C1F430AA839C3854DE03FDC8611FD5FC26E5
310
E99494DEAF5C046092DEF6BD0137DFA41816F8CB670E7C531D4CE41052C97E0C04093B17001E8FF6A2C8CD4836211E4500181A60211EC7D9845F29B49F123B65A19EDF6CB06B34D3A1139E99414814398F9C43A5FDF98322112D6512358EE362CE3088F9D878FF5B488F5D6051AD184E5E83F56B441C8372CD659814044431
310
2DDC4B30691A111B0634CF5ABB617013FDEC01901232B3C25319FBACAEB300489385FFC6F7A9005F3332D024ED00BD0DEA80D0FDF161A661D6BABFA67136398CDC7774AFA32F665AE97176810088720016EDEF3E0FA09B108E167BE1B664F061C9403EC64BBDE21D53C32B960ADDB552482E1B795C312D3065891095CFBE58
310
FC14522286851A164188DCBF61A0B47A1480A464B95270EBBB4503666D8205807FF195FD121907755ED1A109C6B05234CB2F0D17EB53F2D341FA0C3BF28E218C5AE395271BD2018031CB072359A400B244812B02CD5EFC1200D680A896DF1C01BCFEA664A7F91ECBCD0ACD683DBA98D8B2170C0165C2AEA77AB512A180BB9A
310
EEF9F137E152F627CEA156DFB705803ADDF55020481400C90534130109604253DA20A2523E95728BF1CF9EA84E9CEEA074F451716B210E0E18FCFD372401864D681E38B19D0ADC9EFF04609CBF4532F9A171FC74049A2A0F62754401F40307CD5A685E45A08F02CCF58797AC5C0032001A22B2D591AA60822D3B10C09412D3
310
222A520FBBD30006A078C1870277BAC2ECAA7E88E1C37E0740940F4BFB97FBBE295D63E07B22F77F8681F2227C0D3563EB2256B3D5A8AAA01BAE5B151818CC4B79A8ED48008CEF764EABA5C03201A08EE98A94A84949DA25008D0ADB001A0A84A268330EE95D0078BF3936E7DA279FBF57AE37D8D78B8FF3EAA10906700700
310
CCD8596A2B21FD486F4022955F21DC1E9F4CD6AB15331F5229052077B851A2178B04F433C5694CA58EB680F14909C71BB53B004E08F5DB6209920E2400DA0C9E7198B3F7087E5C032406E6BFE4F5686F9734B69100528AD739979CD97EC81D2379B1A8C04C1A510058304022A20B2D100046F89DE800F502AFAF572D5D0900
310
286C132D2640DB11ACF19336006C78ABA902A5249EEBC55B00A61C09086D75A6318CD85202CDF261AA00847C401335712AA881B5961CB0B086A477B72DEF09356B81709D60C4705B32A50F00685ED30584526F8963065B1050CAC33917FE9638E0D51600CCA6586DE97D4C1B88B893FBF0A650283C0B310300C9A7A4C0FD1A
310
0011AC2EEEDAEB0D25502F8960743FD62190D2E1EF0100540040E3CA2900AD13567758DDD1AA01B9D2CFD64D000869A115AE13BA7B0026AAD63528BE83AEA8EC49539094ABC4151642E8213942A0A1A4750D9567A5CADDEE448DCC49E73490529A3D2C9D36C7140180126CC0560042752D5561F19ACBF7CB1BE54B2B0D949F
310
F93E6362A74E5CA69817D146AC90038EB7FA0A2F1E0B2F2B0085FBD18C5D82BB4A178B9851022065D48943ACB302D789A033222EA32BBADFB37D2B256E140AAFB4CE2E1159FD5BA76016A74FF50D3DE0078C9490FC837D4A968068CEA010E2A945FCB6DCA155A2BB8AC037859B25653962976B57E036300D7585482511C549
310
00A1763B0549B7A2118CE88205086B2EE08A064B90390951BC8A401355F20124AD62F93B59B195BF77102E58D33EE7837C855FB9E7F9ABD0B74D38A114CF94648852A440B1BEAF4D88D507EEAB7D748BD1C3991A174DFEAD9F4A0B1B69BFF0AE4B2C08852F2E2909ACF5C7391AE42A00EB0DDA0320E567B8F2C8B930741D2B
310
46932E00F480AB9819495AA936E72CA16006251F059505C4C5BE1B3F8057868AD6B680A9E1C50C524F8C1DD6E8648FC0BC7495CA29ED8310138E8E67362D00DE29C3CCA768EDF9362F581217983F8697A40F85CC3707205DFC608C0EA324440072796D2B022C6B6A9BB018D2C84FCD8BF85A03F6160D022D3630F0CA510072
310
90B5300AAD94233345A9F70839562CA53BCC5D121712F088DD741AAD3A02C73402F4A1C7264304C9979D00BCF94ADFF1958200380050738CA073421984BB1D1833E62FC3800A8B2B32CB60D5E1CB2B7F4C076BB765CA54EFB851F20B556A6BC8465AB14F21C524C85700A058A6C42EA7FEBB349637AB789CC1A80A48D78E70
310
62AFD7DD95C77E66C8512F660ADA6A4E9700C8B721DB6B8410EE859B7C0540A5BD5A8B05E824007A2DDDDA4A94537FBB0A68127083C0833C191C8DDBA30904778420DDB95C48E15039066A236461C083AC5F00105B5EA9A5DEA70940BD135664EBE80D627C4DAF5BED1DA72791FF60579397A176137600858275BD8F1206E4
310
C015E27CECC4B902B0794B09C03B2A43B4EB49D464A9732A5CD5726306850A3100666D32B9ADC878AF260122D305F596C83E80A43AA13E1A63BA140A9E59E945ACFB1E00ECE3834E330C3A2F4B25FFDE7EA91BE4604B8BB57A5DE2FEAF6CE017D18E04ABE5612ED243EAF9C9EB03DAEC29ACB1F07045FD607754C3DC7E1920
310
E94F3087E2AA7F3782CB568B8B95A3D9C472134A1454A3CDD47F2093022F573AE5517AA4D49269C762648B822B4BC16DEFCA4E1D71F2CACE0FB7F522D5386E136F9F3EA45506E40F0C8DCA1882CDEDFCFE2E5EE10346CE04BD05C9CC8DA71D35A3F84A635202C0D1474E46254040BCB1C8CD7CAF92411FD72C70DF46A310AE
310
1B00DE05DCE8361E88B7922045A4684440102088FE3ED54FC25739B0D1F290F785CF0246FF7041E8598940702B088F260034F0EB45CB51C9B6BAB476F99671E54351639CD13EB5DA2976755FB5CECC0230C62191E279B57BA1DD79253E8785E7AFD7C209AE8E40EEDC09000841C105129A5D100583FC9691B7AB29692C0C64
310
A759C5AAE4B7DE054C02804744EFB072657745E7F7FB3BB75A0F99FB0080DB00CE7F5964114B5B62C9BC76B4556B36EBC76E7A865410C919585C93C66ED110BAB48B04FC90F9502BA98E5F69E3BF15835110620072ADF97684F4318D207AB3B675C605EF3F21A0DCD24025BA55BA1063AD7BA14BB3D87663BA51272179204E
310
EA951D7FA438C8F2F31898A4F099BD64A402E0F50B0048CA4E6F9BCB5D0130CF60E7FF124B0B73550E19D1D98B48C3ECFC826DF6DF976621B67EDCB131E60143C68277F96DF3E1E11ED2C7CF00081F40A85B4E08715F77A48585E0C508A7CD7EF32C40CB0CF3C20CD38500B444317BF11B4396E76A83D03FA4E7582814F810
310
0F3C1F4F52D62AA497BBA223351F61F7081980B3EE1E00D0E6953839EDBF00FB18867287A517E8A455339AE053B03E02805E519538E4D3D4D8A3D1F3D9A4783927A136919D1587D51E744F336849E79062E5DD75E044C01BDBDF6DAA575A2BA1551AED84EDE7C731EBE85872E30B19953E6CF1EC1FC7E61EE77D793E9F14DA
310
B962FC536960BB32C9F0A096C3F43E51AABC5BA3A185413DA757BBBD1AE48380ED3823C2434FB6F283FEF9F00BF4B66657542A729DE15A2A240F6E5B7CD233B5039414B8A5991D6D2B45ABA8DC02E0C1899721969C61DD2C139B69DB4C0D71C31CFA87512126649CE58D8818F03E18660D1C2A706AC21680C486C7DE400CA2
310
B2D5009702CB88A11206AB098856B2D67FF0668C966D11BA97D4066D4E09E813A52936F01403830037CDA991A7A3A6ED42CD052C6E3F28008C03A285E77B00DA1500AA281AA150AB8303350C66C624160B3EB9415DEB717A338E031582AD044CAE8A72F2590BFC550348F72BFE1700D82BF5C37A52763D1115038DB8FA2CC2
310
D3C7380051010054C919106CEC46E88B9B6CFA2C2AAE2620FCBC15AB064CB0077597D685567372A6A7ED5533EC1BCAD9FE8764C8F81888E9D8F3B90320FC6528F861D2D0955E67140059AFC453E44B6861402EA5BC311C4BA1E943AB2B74672FEB7CED383D7DD0000BB9E2AD79FE5CDC470520E534246DB4572660F242404B
310
317DB181EA22D9C050178DA6492DAF016A8FB967393FDC14C9C98B430A421C78C4333AA22507CCF34D3E6EE022AAB4626AA8D73E0CC90903833AD76C552E5D3B0D49B38F2EAF73205E52819DB06D0090F3DF640EA33010829588C179BD2702D4F2262F2A2342D51FC92C7D3601A1EA446BAF4324F94A51F8607EBB1B004654
310
2FFBA5DE9A242FBD1AF082DBB216D183A8C559B3A00BA2B3EC14286A4352538095BBC6A40134A742C1BA96AAFD5A1A7EBC0DFF3C3F4E0E18578234D4023702E03CC04D87404B93A0DEBDAA71340D049EAC8F88BBA68C3CC6183605E3FC3E98E5876D74415EEA9E2CAC7D83DFB6E3C1C3C132D1B6BD9D6B0D4747E7CD1B7E68
310
919800705AAB72A0CB9C9E161D2D54B9B7D74DAD100CC17D1201CCD62840D8BAB110BDCFD07DAC8752891C1B420E9A1AB0B6845E54F1E005F77581475E7432DB9EC266E7F1158580541BD62E9654D5E67268575661F660B538444A797D70BE2B6F15216E8B1C4AD06976186C1A963269DB92116C6D19665B4ABE461F8D18B2
310
7BAB8191112E063308CF6D53ADC6320856A692E5D0D3C8CF46991E7C3E6EE30DCFFD549F08370980BFC08C7EA93598F765F4C95E07429E5ABB3137A7ABE6203A067609A574DB6C2D589B6B358606847640166848A5A250F9C96B1FB2B8EA1DE80242770D2879A4A6DABD569E7D78FE26127CE84FCF38AC275E8A2538388681
310
8145659ECD438DBE646584B69E8D48212E5EB076D16552320B008B2087561208E09CDD2C6BC5064D1E794BA2D0FD6DDB0BAF58613DFE1E00F1BB346F0593068241B8095F90EC764B1D7CD62117881F791D3F3B470DDB88DBA80C424A55BA948A4919ACEC1D8CAD58BA50EF75C18480C6E6D064C8AF27001AA14BF50A412C74
310
A42D0FB8EC4D8E3DDF6085B75D1B4275D9BA210D25D09EAE2A356064DF4821E774F1BF00807BC641556007C0E837EF393E500C9EE13D21314625A72802600471ECBDBC646C65B24E66993A2F35382D47271DBBAF4B562375AC07E73F80FF7F03C020C5953C5A0BF16303D240A527102604A66414DA9716D62A03E05D18B557
310
680B00A116473448D0A4EBA60B9478645A4190EA606B5700D89D03DF76B6D6F747AAD5BB36477B80F0D4F0C886EE82D0029511969CA67146804B2471C9F1F3F9BB2D36509FA8C2BD6B873500466918DC135E0020A11A112C59CA0C5C42C1424E5A308044C10C25A14456863C95745EB423CCFE64B8EA3A204900DD125A2F98
310
735CA03080BD885396E6F7384FBA8E0364EB2C2D0084D04E84ADF792FFFB72A0A80B2A20B0BC50D8EA2305A4D91524286C24F938ACCC855E100C5ECD4F94209855FA974E0DBF85BD27BC0380FD20C19E6B9ADAC66AD0E6C2962807BEFA5383E777554A658FA5B2921BA761A156B42E74482F4058152BF439941B9AEFB0BECC
310
4B1361A492C6AD00304741572BF7787895ACE8AD4EA2C7ADDF8AC1D37CC04AD4FAF6A871F004006D35CF8239DEDD81B22C98BBDEC062BB9A1305044C79250D5A568C1400CC08407EEE45EA169CCBE29A074ADD3DA0EAA882D05403762DBF18B685E0AED1A0A57D6CD42509409D21962D21AFB92135F5634CA9F0C610CB336F
310
EA880F2E188C5C68D180C0EF4DDD9ABA3019317F281067CD4F8C6B626663670878A7F7E612B66C9DD84EC76B00D8C58E1EC0B61F228D1135C710A0F019E506A75D51D4F7A0ED664EE66E448ABDA0DAC0D3DA4CF42D4078E21336BC449EF2B3F2322FCA009BC2DF2C4C3ABA6DF11912C0002C99F09420BDE7C3F9B996EC0898
310
04C0CB9E00B4A7DB25E62AADBA9EC9B5F4B00C2FE52B755069C300C09B74D7E0489B686108E44F5E976BF7E044627CCE7BC1EAAA6947436EBABB050DE5EF4AE927004DF7685CF4DB5928903C7BD00005E02B83207EA158F9C225859CB0301C34011884A8FC5F00D033E6E4C37F1124F72F0FE9B8A8B938006D53AC28F614D3
310
F23405407702B596118099C43DDD4E48489B077C029BBA928D1401D074680290042CFE2DC16FA19A6E55E04B0185EB728B662FEFB2414A463E6A182F61B065F1A7329CF612B8BB996AEF796897D453068A5F5686FFC0B1D1C394400158760C6E184E65673EEF487C340DA761130AE60D18B2E9237435C02E8F9B5505C5E0D9
310
D9280E002A71AB8D12664FE6F3512890ABA2FFA348D50F55732A9D17C57DCC4D6269FFE56587E0EB253610DADC57F85E00F050D61EEA0089EA8C99FFBCB18681240C8021D00855623F4237E71B9F3BE08E48B666AA6D9F0E99B69B37F314C24D5D6000109EFE95BAFE8A04684F106A64D4214DFDA40E26FE9EF8969036C1CF
310
4015D2648B7AA3BDF3E52156A641CE3FBBC0F7CA5DDB3D8C4A2DA90CFEC232E5078B944FB116D90A153F4824DE795D6201E86B4D5EF9C6805F97F5E89C1182ED978516C706BE68E31CDAFBD030A8A3328324AB0143211CBDD56817EC7E68270C6E300C69B5753466344EBEB10E51E3955CA1BAC9D44A03530E040C55068854
310
4A316387D9806ED4B065F9DE82981F48B952396449CCC74028320AB4AB1CD5C233CDDCAE59ABDB97F673F4D206AFDBC43C63C0A7F06A3E415E77B12401446E921309701FE837B794D372A3B69BEB6B08BE870470735023087542AA8BFDC9A6D184A56AA18028719DB3F2083D2C196487DF25D2326A573206018100EA284236
310
94DC763184E0278FB5BCFCEEDAD63E683DE42DFBDEFB6B0C78B726C9C84B19E2280F37417DC64F170F9072619446D1396BF27D7E0CEB40BCA1A073E608BA4967264D038253AEF3E4517D5FABDA8F2557A602BEDD5D272B4A9CADEE017F619DFCE35B8280A67400ED157276BDF9484464C9ACAB59DB78E70A551A00D80228F4
310
AA8E2CCB1BBA80CFFC78C9F9EA5417128A0A3800C9584B95CDA5C086EB7F0500D9A56300B446DBDA756AFB5B833FD9BB68FE0186C28E3B7F0A81F6107F77DD008FDF36A6681878D939641E99176B9D94159A12B048770F94B52DB640BAEF0B60011027C8B35C04BE20F5829CD5E42F6E8749EF30DEFD8B01F0B2E7FBFBFDCD
310
CA41F83D9F42209DC3914A6A2B3FE6F930392FE823C0B8AF700A4F83326D84B9A1696B02380A925119E5C5D9E55DB2D34B47372D9B3E6527A3DE0204E743C60DFFB6BB95DA4202BFBE05409B3F590240341637823A199BF27C079F3CBED200916AE5E6EB78C406807DC66C19215BEC6E32284CC2F72906CC287CAB0628B128
310
53848B1C2C2A70DADD9F0200AF07D527B16E59A4B0FE088B27DA88C0D0804073A974F64B0A11DB7602B76C0B69BE8606C91FBBD426A53258E5412D772DC5E93D7B38062B00DD6C8026FAAA62659CBC94A2FC89170A40A7AD06F8A616D2F9660A91658118770DCDADFC0CCC1B80C1760681EC727A793842B0F242A2D0BA255A
310
F65C0E46ECE5776261C3A865E7618F6A5C462E930084DE087547B931B25C0AE6D5E83B0128E3066EB050AD94D45E3BEF4AECC07FF3927182B5DEA6F1703300BCDD0769BBBC25DA028C83F68D25123602300198E91FA54739A6D06833DC4C8B0654AE1BC9E5C09CB660D0349D93D5996D260CD28CE3EF60AC20F5C3A280554A
310
12103EAD1489EC05805111088B1625126E63D8EB6DFB73963DD508B7363001E01D67A37D3175187631821DC8FB7A7C0408D47C09044117B9300656ECA94C0815760477F67107C0ABA0C86FD9792A7179BE299BDF754E6FA301FAC08FAE8F1DA2FC0842016094F9BDE6DC7AB8A58601494F5604A0C962C0F23C9BCDF4082EC9
310
CC6ABD1E2FE142A604E44166598A3E31E8BBC68FB60A002BED61EDCB6A003115BD4CF5BB9FBF85E715240C8EE39DB55A63F756F6AB948BDAAC645ECECF004C1B48E121314BAB9A97699673EFDA205001081E09E39E16F456036B47E92D8FA282DB03C4E390F5865A1BB558A0A5E78DA419DC77C78DF02F0F59692201B6EB55
310
ED19006DD664997122ACCA9FCC31DAB29032B3903D8B448BDA6C21F6A08F853F2179872907C3310C0C7C50623C31274EACD4D6E177EB5475772B014DBB46C8B7E7487FE19A075A7295F9975E7CC0BB91B01C5CC43A6AEB7422B1B9D5C700F0A773CD18B4169B4E93785864673A40D70BAD07EF567D19B42B00E4E8D0AE4976
310
4AB6D8C6B17A195E7C8B898043DEFA889EC904A8858D7A1D651171A7D59D465242E5E0C9B30B8200F8437D28CE30D535D6E1E14ECB9C520460D3494D719E315686BF303F4EBB4733244BB0B99CDD139D41A1DD353D275B2BD235EA846886E204310CF7E87D41B967D012C21E7641A36F05825B002E046099CE935D731D6BAA
310
112F733CADE627F6324121FDB46D796036054E3B3D52A3D557C79FF6CBDA88B10601933E324246EA82E1495F350EF0D177B8A81E642BAB162ED0F68B0FE0884D92A1969753CB684D8B63D7BCBCA5F00AB647DE1BF76D8B0F7AB4FC7A3D354C48C5D110056A368CFE6024D03D3E4B1C602E00AECB27E12890C8983A471F350F
310
F3FE57277BB529D3635E90053C4157C7F9210CC2BA3222A5E6591D6278B6F288A6169EE7815AF0B9604322004B97EE560E60EDF88BC592C0619467B11637A43CBBF2C26217E3408EC6615EFBE913802982A0430C9C41A6C737C6DEC4AB78D101A0DCA246579A305BB3715386D3478E4EA7994AE16A026AD92654FD36853D37
310
011A28A2CDDF4A6D2808029164D1CFA9709E866D97DE1600DC825E0A40B6E83FCBDC9A76F804B157CB967772C3A68C9C252899BC9089B004705B55B03DF6AF475E2239D876A78650E73AED47FE037B1919932C3097960000000049454E44AE4260820FD33AC63AA2ECA95AEF04C0A1929A723F63CE0C7F627D9CF6A052F14E
310
56D3253C377BF3B3DC953259B58CF44ABE219BA1DC410C7C3C465D50AD19748770F82C6871606D2A5087B700DC0840D9886EA53C68C484D633C31FCF732DFF0796A7FE74D9876BBBFBF6C06C4A31EDF2488DB6BE3BFEF05FB6428C9D04CCF0116A3C564A033AA5277DAD3CC00A6EEE00488D1B5AC902F519E84B63A595BACB
310
88F66446EDC981C025D3DC9D91C377F610E6746D9F231F85FB3EC507832D3F1E1F46134A7234B1401D89698D8FFAE00F003CF1003F02E03E7D228552148322701E854B1F7DD6BCCCC46CEA998D5986A9D61AE2A0F01B1C0082D408EB0078480E67F770B80D4B52087D7C395AC2C7A6FFBC0360ABD25D319893321C805CD18E
310
254CF3AC49C95E87263BA59039851A8F76D169FAFC8BD4B9D02278108FDF9BF6409B18C4832C8F6FF4814FE9410047675089502D51A33B4DE841C1BD0C7AD57E07400ECD9C0A5700006A808D72D62F45C1737A5C635C4A14B58B559A80E7F03C9313F5A23FA6265A4681DA71E8ED024058D05B017013A057FB8196ED08933D
310
226C9BA9C91CC4171AB0D49E81E63D7297900390D31D22018819B2161FF73A4492A3ED22EF9A1B5527D07FE47F764C5D40F12F64540000000049454E44AE426082
  0
ENDSEC
  0
EOF
