0
SECTION
2
ENTITIES
0
3DFACE
8
PIETRA - OPUS QUADRATUM
10
0
20
46
30
0
11
0
21
0
31
0
12
66
22
0
32
0
13
66
23
46
33
0
0
3DFACE
8
LATERIZIO
10
0
20
46
30
0
11
0
21
46
31
10
12
66
22
46
32
10
13
66
23
46
33
0
0
3DFACE
8
LATERIZIO
10
66
20
46
30
0
11
66
21
46
31
10
12
66
22
0
32
10
13
66
23
0
33
0
0
ATTDEF
8
SOURCES
1
omni.spk
2
1
3
A
10
61.5
20
11
30
3
11
46
21
23
31
0
51
0
40
0.3
70
0
72
5
0
TEXT
8
SOURCE_LABELS
1
A
10
61.5
20
11
30
3
11
61.5
21
11
31
3
40
0.3
72
1
73
2
0
LINE
8
RECEIVERS
10
2
20
2
30
1.5
11
61.5
21
23
31
3
0
TEXT
8
RECEIVER_LABELS
1
1
10
2
20
2
30
1.5
11
2
21
2
31
1.5
40
0.3
72
1
73
2
0
LINE
8
RECEIVERS
10
2
20
4
30
1.5
11
61.5
21
23
31
3
0
TEXT
8
RECEIVER_LABELS
1
2
10
2
20
4
30
1.5
11
2
21
4
31
1.5
40
0.3
72
1
73
2
0
LINE
8
RECEIVERS
10
2
20
6
30
1.5
11
61.5
21
23
31
3
0
TEXT
8
RECEIVER_LABELS
1
3
10
2
20
6
30
1.5
11
2
21
6
31
1.5
40
0.3
72
1
73
2
0
LINE
8
RECEIVERS
10
2
20
8
30
1.5
11
61.5
21
23
31
3
0
TEXT
8
RECEIVER_LABELS
1
4
10
2
20
8
30
1.5
11
2
21
8
31
1.5
40
0.3
72
1
73
2
0
LINE
8
RECEIVERS
10
2
20
10
30
1.5
11
61.5
21
23
31
3
0
TEXT
8
RECEIVER_LABELS
1
5
10
2
20
10
30
1.5
11
2
21
10
31
1.5
40
0.3
72
1
73
2
0
LINE
8
RECEIVERS
10
2
20
12
30
1.5
11
61.5
21
23
31
3
0
TEXT
8
RECEIVER_LABELS
1
6
10
2
20
12
30
1.5
11
2
21
12
31
1.5
40
0.3
72
1
73
2
0
LINE
8
RECEIVERS
10
2
20
14
30
1.5
11
61.5
21
23
31
3
0
TEXT
8
RECEIVER_LABELS
1
7
10
2
20
14
30
1.5
11
2
21
14
31
1.5
40
0.3
72
1
73
2
0
LINE
8
RECEIVERS
10
2
20
16
30
1.5
11
61.5
21
23
31
3
0
TEXT
8
RECEIVER_LABELS
1
8
10
2
20
16
30
1.5
11
2
21
16
31
1.5
40
0.3
72
1
73
2
0
LINE
8
RECEIVERS
10
2
20
18
30
1.5
11
61.5
21
23
31
3
0
TEXT
8
RECEIVER_LABELS
1
9
10
2
20
18
30
1.5
11
2
21
18
31
1.5
40
0.3
72
1
73
2
0
LINE
8
RECEIVERS
10
2
20
20
30
1.5
11
61.5
21
23
31
3
0
TEXT
8
RECEIVER_LABELS
1
10
10
2
20
20
30
1.5
11
2
21
20
31
1.5
40
0.3
72
1
73
2
0
LINE
8
RECEIVERS
10
2
20
22
30
1.5
11
61.5
21
23
31
3
0
TEXT
8
RECEIVER_LABELS
1
11
10
2
20
22
30
1.5
11
2
21
22
31
1.5
40
0.3
72
1
73
2
0
LINE
8
RECEIVERS
10
2
20
24
30
1.5
11
61.5
21
23
31
3
0
TEXT
8
RECEIVER_LABELS
1
12
10
2
20
24
30
1.5
11
2
21
24
31
1.5
40
0.3
72
1
73
2
0
LINE
8
RECEIVERS
10
2
20
26
30
1.5
11
61.5
21
23
31
3
0
TEXT
8
RECEIVER_LABELS
1
13
10
2
20
26
30
1.5
11
2
21
26
31
1.5
40
0.3
72
1
73
2
0
LINE
8
RECEIVERS
10
2
20
28
30
1.5
11
61.5
21
23
31
3
0
TEXT
8
RECEIVER_LABELS
1
14
10
2
20
28
30
1.5
11
2
21
28
31
1.5
40
0.3
72
1
73
2
0
LINE
8
RECEIVERS
10
2
20
30
30
1.5
11
61.5
21
23
31
3
0
TEXT
8
RECEIVER_LABELS
1
15
10
2
20
30
30
1.5
11
2
21
30
31
1.5
40
0.3
72
1
73
2
0
LINE
8
RECEIVERS
10
2
20
32
30
1.5
11
61.5
21
23
31
3
0
TEXT
8
RECEIVER_LABELS
1
16
10
2
20
32
30
1.5
11
2
21
32
31
1.5
40
0.3
72
1
73
2
0
LINE
8
RECEIVERS
10
2
20
34
30
1.5
11
61.5
21
23
31
3
0
TEXT
8
RECEIVER_LABELS
1
17
10
2
20
34
30
1.5
11
2
21
34
31
1.5
40
0.3
72
1
73
2
0
LINE
8
RECEIVERS
10
2
20
36
30
1.5
11
61.5
21
23
31
3
0
TEXT
8
RECEIVER_LABELS
1
18
10
2
20
36
30
1.5
11
2
21
36
31
1.5
40
0.3
72
1
73
2
0
LINE
8
RECEIVERS
10
2
20
38
30
1.5
11
61.5
21
23
31
3
0
TEXT
8
RECEIVER_LABELS
1
19
10
2
20
38
30
1.5
11
2
21
38
31
1.5
40
0.3
72
1
73
2
0
LINE
8
RECEIVERS
10
2
20
40
30
1.5
11
61.5
21
23
31
3
0
TEXT
8
RECEIVER_LABELS
1
20
10
2
20
40
30
1.5
11
2
21
40
31
1.5
40
0.3
72
1
73
2
0
LINE
8
RECEIVERS
10
2
20
42
30
1.5
11
61.5
21
23
31
3
0
TEXT
8
RECEIVER_LABELS
1
21
10
2
20
42
30
1.5
11
2
21
42
31
1.5
40
0.3
72
1
73
2
0
LINE
8
RECEIVERS
10
2
20
44
30
1.5
11
61.5
21
23
31
3
0
TEXT
8
RECEIVER_LABELS
1
22
10
2
20
44
30
1.5
11
2
21
44
31
1.5
40
0.3
72
1
73
2
0
LINE
8
RECEIVERS
10
4
20
2
30
1.5
11
61.5
21
23
31
3
0
TEXT
8
RECEIVER_LABELS
1
23
10
4
20
2
30
1.5
11
4
21
2
31
1.5
40
0.3
72
1
73
2
0
LINE
8
RECEIVERS
10
4
20
4
30
1.5
11
61.5
21
23
31
3
0
TEXT
8
RECEIVER_LABELS
1
24
10
4
20
4
30
1.5
11
4
21
4
31
1.5
40
0.3
72
1
73
2
0
LINE
8
RECEIVERS
10
4
20
6
30
1.5
11
61.5
21
23
31
3
0
TEXT
8
RECEIVER_LABELS
1
25
10
4
20
6
30
1.5
11
4
21
6
31
1.5
40
0.3
72
1
73
2
0
LINE
8
RECEIVERS
10
4
20
8
30
1.5
11
61.5
21
23
31
3
0
TEXT
8
RECEIVER_LABELS
1
26
10
4
20
8
30
1.5
11
4
21
8
31
1.5
40
0.3
72
1
73
2
0
LINE
8
RECEIVERS
10
4
20
10
30
1.5
11
61.5
21
23
31
3
0
TEXT
8
RECEIVER_LABELS
1
27
10
4
20
10
30
1.5
11
4
21
10
31
1.5
40
0.3
72
1
73
2
0
LINE
8
RECEIVERS
10
4
20
12
30
1.5
11
61.5
21
23
31
3
0
TEXT
8
RECEIVER_LABELS
1
28
10
4
20
12
30
1.5
11
4
21
12
31
1.5
40
0.3
72
1
73
2
0
LINE
8
RECEIVERS
10
4
20
14
30
1.5
11
61.5
21
23
31
3
0
TEXT
8
RECEIVER_LABELS
1
29
10
4
20
14
30
1.5
11
4
21
14
31
1.5
40
0.3
72
1
73
2
0
LINE
8
RECEIVERS
10
4
20
16
30
1.5
11
61.5
21
23
31
3
0
TEXT
8
RECEIVER_LABELS
1
30
10
4
20
16
30
1.5
11
4
21
16
31
1.5
40
0.3
72
1
73
2
0
LINE
8
RECEIVERS
10
4
20
18
30
1.5
11
61.5
21
23
31
3
0
TEXT
8
RECEIVER_LABELS
1
31
10
4
20
18
30
1.5
11
4
21
18
31
1.5
40
0.3
72
1
73
2
0
LINE
8
RECEIVERS
10
4
20
20
30
1.5
11
61.5
21
23
31
3
0
TEXT
8
RECEIVER_LABELS
1
32
10
4
20
20
30
1.5
11
4
21
20
31
1.5
40
0.3
72
1
73
2
0
LINE
8
RECEIVERS
10
4
20
22
30
1.5
11
61.5
21
23
31
3
0
TEXT
8
RECEIVER_LABELS
1
33
10
4
20
22
30
1.5
11
4
21
22
31
1.5
40
0.3
72
1
73
2
0
LINE
8
RECEIVERS
10
4
20
24
30
1.5
11
61.5
21
23
31
3
0
TEXT
8
RECEIVER_LABELS
1
34
10
4
20
24
30
1.5
11
4
21
24
31
1.5
40
0.3
72
1
73
2
0
LINE
8
RECEIVERS
10
4
20
26
30
1.5
11
61.5
21
23
31
3
0
TEXT
8
RECEIVER_LABELS
1
35
10
4
20
26
30
1.5
11
4
21
26
31
1.5
40
0.3
72
1
73
2
0
LINE
8
RECEIVERS
10
4
20
28
30
1.5
11
61.5
21
23
31
3
0
TEXT
8
RECEIVER_LABELS
1
36
10
4
20
28
30
1.5
11
4
21
28
31
1.5
40
0.3
72
1
73
2
0
LINE
8
RECEIVERS
10
4
20
30
30
1.5
11
61.5
21
23
31
3
0
TEXT
8
RECEIVER_LABELS
1
37
10
4
20
30
30
1.5
11
4
21
30
31
1.5
40
0.3
72
1
73
2
0
LINE
8
RECEIVERS
10
4
20
32
30
1.5
11
61.5
21
23
31
3
0
TEXT
8
RECEIVER_LABELS
1
38
10
4
20
32
30
1.5
11
4
21
32
31
1.5
40
0.3
72
1
73
2
0
LINE
8
RECEIVERS
10
4
20
34
30
1.5
11
61.5
21
23
31
3
0
TEXT
8
RECEIVER_LABELS
1
39
10
4
20
34
30
1.5
11
4
21
34
31
1.5
40
0.3
72
1
73
2
0
LINE
8
RECEIVERS
10
4
20
36
30
1.5
11
61.5
21
23
31
3
0
TEXT
8
RECEIVER_LABELS
1
40
10
4
20
36
30
1.5
11
4
21
36
31
1.5
40
0.3
72
1
73
2
0
LINE
8
RECEIVERS
10
4
20
38
30
1.5
11
61.5
21
23
31
3
0
TEXT
8
RECEIVER_LABELS
1
41
10
4
20
38
30
1.5
11
4
21
38
31
1.5
40
0.3
72
1
73
2
0
LINE
8
RECEIVERS
10
4
20
40
30
1.5
11
61.5
21
23
31
3
0
TEXT
8
RECEIVER_LABELS
1
42
10
4
20
40
30
1.5
11
4
21
40
31
1.5
40
0.3
72
1
73
2
0
LINE
8
RECEIVERS
10
4
20
42
30
1.5
11
61.5
21
23
31
3
0
TEXT
8
RECEIVER_LABELS
1
43
10
4
20
42
30
1.5
11
4
21
42
31
1.5
40
0.3
72
1
73
2
0
LINE
8
RECEIVERS
10
4
20
44
30
1.5
11
61.5
21
23
31
3
0
TEXT
8
RECEIVER_LABELS
1
44
10
4
20
44
30
1.5
11
4
21
44
31
1.5
40
0.3
72
1
73
2
0
LINE
8
RECEIVERS
10
6
20
2
30
1.5
11
61.5
21
23
31
3
0
TEXT
8
RECEIVER_LABELS
1
45
10
6
20
2
30
1.5
11
6
21
2
31
1.5
40
0.3
72
1
73
2
0
LINE
8
RECEIVERS
10
6
20
4
30
1.5
11
61.5
21
23
31
3
0
TEXT
8
RECEIVER_LABELS
1
46
10
6
20
4
30
1.5
11
6
21
4
31
1.5
40
0.3
72
1
73
2
0
LINE
8
RECEIVERS
10
6
20
6
30
1.5
11
61.5
21
23
31
3
0
TEXT
8
RECEIVER_LABELS
1
47
10
6
20
6
30
1.5
11
6
21
6
31
1.5
40
0.3
72
1
73
2
0
LINE
8
RECEIVERS
10
6
20
8
30
1.5
11
61.5
21
23
31
3
0
TEXT
8
RECEIVER_LABELS
1
48
10
6
20
8
30
1.5
11
6
21
8
31
1.5
40
0.3
72
1
73
2
0
LINE
8
RECEIVERS
10
6
20
10
30
1.5
11
61.5
21
23
31
3
0
TEXT
8
RECEIVER_LABELS
1
49
10
6
20
10
30
1.5
11
6
21
10
31
1.5
40
0.3
72
1
73
2
0
LINE
8
RECEIVERS
10
6
20
12
30
1.5
11
61.5
21
23
31
3
0
TEXT
8
RECEIVER_LABELS
1
50
10
6
20
12
30
1.5
11
6
21
12
31
1.5
40
0.3
72
1
73
2
0
LINE
8
RECEIVERS
10
6
20
14
30
1.5
11
61.5
21
23
31
3
0
TEXT
8
RECEIVER_LABELS
1
51
10
6
20
14
30
1.5
11
6
21
14
31
1.5
40
0.3
72
1
73
2
0
LINE
8
RECEIVERS
10
6
20
16
30
1.5
11
61.5
21
23
31
3
0
TEXT
8
RECEIVER_LABELS
1
52
10
6
20
16
30
1.5
11
6
21
16
31
1.5
40
0.3
72
1
73
2
0
LINE
8
RECEIVERS
10
6
20
18
30
1.5
11
61.5
21
23
31
3
0
TEXT
8
RECEIVER_LABELS
1
53
10
6
20
18
30
1.5
11
6
21
18
31
1.5
40
0.3
72
1
73
2
0
LINE
8
RECEIVERS
10
6
20
20
30
1.5
11
61.5
21
23
31
3
0
TEXT
8
RECEIVER_LABELS
1
54
10
6
20
20
30
1.5
11
6
21
20
31
1.5
40
0.3
72
1
73
2
0
LINE
8
RECEIVERS
10
6
20
22
30
1.5
11
61.5
21
23
31
3
0
TEXT
8
RECEIVER_LABELS
1
55
10
6
20
22
30
1.5
11
6
21
22
31
1.5
40
0.3
72
1
73
2
0
LINE
8
RECEIVERS
10
6
20
24
30
1.5
11
61.5
21
23
31
3
0
TEXT
8
RECEIVER_LABELS
1
56
10
6
20
24
30
1.5
11
6
21
24
31
1.5
40
0.3
72
1
73
2
0
LINE
8
RECEIVERS
10
6
20
26
30
1.5
11
61.5
21
23
31
3
0
TEXT
8
RECEIVER_LABELS
1
57
10
6
20
26
30
1.5
11
6
21
26
31
1.5
40
0.3
72
1
73
2
0
LINE
8
RECEIVERS
10
6
20
28
30
1.5
11
61.5
21
23
31
3
0
TEXT
8
RECEIVER_LABELS
1
58
10
6
20
28
30
1.5
11
6
21
28
31
1.5
40
0.3
72
1
73
2
0
LINE
8
RECEIVERS
10
6
20
30
30
1.5
11
61.5
21
23
31
3
0
TEXT
8
RECEIVER_LABELS
1
59
10
6
20
30
30
1.5
11
6
21
30
31
1.5
40
0.3
72
1
73
2
0
LINE
8
RECEIVERS
10
6
20
32
30
1.5
11
61.5
21
23
31
3
0
TEXT
8
RECEIVER_LABELS
1
60
10
6
20
32
30
1.5
11
6
21
32
31
1.5
40
0.3
72
1
73
2
0
LINE
8
RECEIVERS
10
6
20
34
30
1.5
11
61.5
21
23
31
3
0
TEXT
8
RECEIVER_LABELS
1
61
10
6
20
34
30
1.5
11
6
21
34
31
1.5
40
0.3
72
1
73
2
0
LINE
8
RECEIVERS
10
6
20
36
30
1.5
11
61.5
21
23
31
3
0
TEXT
8
RECEIVER_LABELS
1
62
10
6
20
36
30
1.5
11
6
21
36
31
1.5
40
0.3
72
1
73
2
0
LINE
8
RECEIVERS
10
6
20
38
30
1.5
11
61.5
21
23
31
3
0
TEXT
8
RECEIVER_LABELS
1
63
10
6
20
38
30
1.5
11
6
21
38
31
1.5
40
0.3
72
1
73
2
0
LINE
8
RECEIVERS
10
6
20
40
30
1.5
11
61.5
21
23
31
3
0
TEXT
8
RECEIVER_LABELS
1
64
10
6
20
40
30
1.5
11
6
21
40
31
1.5
40
0.3
72
1
73
2
0
LINE
8
RECEIVERS
10
6
20
42
30
1.5
11
61.5
21
23
31
3
0
TEXT
8
RECEIVER_LABELS
1
65
10
6
20
42
30
1.5
11
6
21
42
31
1.5
40
0.3
72
1
73
2
0
LINE
8
RECEIVERS
10
6
20
44
30
1.5
11
61.5
21
23
31
3
0
TEXT
8
RECEIVER_LABELS
1
66
10
6
20
44
30
1.5
11
6
21
44
31
1.5
40
0.3
72
1
73
2
0
LINE
8
RECEIVERS
10
8
20
2
30
1.5
11
61.5
21
23
31
3
0
TEXT
8
RECEIVER_LABELS
1
67
10
8
20
2
30
1.5
11
8
21
2
31
1.5
40
0.3
72
1
73
2
0
LINE
8
RECEIVERS
10
8
20
4
30
1.5
11
61.5
21
23
31
3
0
TEXT
8
RECEIVER_LABELS
1
68
10
8
20
4
30
1.5
11
8
21
4
31
1.5
40
0.3
72
1
73
2
0
LINE
8
RECEIVERS
10
8
20
6
30
1.5
11
61.5
21
23
31
3
0
TEXT
8
RECEIVER_LABELS
1
69
10
8
20
6
30
1.5
11
8
21
6
31
1.5
40
0.3
72
1
73
2
0
LINE
8
RECEIVERS
10
8
20
8
30
1.5
11
61.5
21
23
31
3
0
TEXT
8
RECEIVER_LABELS
1
70
10
8
20
8
30
1.5
11
8
21
8
31
1.5
40
0.3
72
1
73
2
0
LINE
8
RECEIVERS
10
8
20
10
30
1.5
11
61.5
21
23
31
3
0
TEXT
8
RECEIVER_LABELS
1
71
10
8
20
10
30
1.5
11
8
21
10
31
1.5
40
0.3
72
1
73
2
0
LINE
8
RECEIVERS
10
8
20
12
30
1.5
11
61.5
21
23
31
3
0
TEXT
8
RECEIVER_LABELS
1
72
10
8
20
12
30
1.5
11
8
21
12
31
1.5
40
0.3
72
1
73
2
0
LINE
8
RECEIVERS
10
8
20
14
30
1.5
11
61.5
21
23
31
3
0
TEXT
8
RECEIVER_LABELS
1
73
10
8
20
14
30
1.5
11
8
21
14
31
1.5
40
0.3
72
1
73
2
0
LINE
8
RECEIVERS
10
8
20
16
30
1.5
11
61.5
21
23
31
3
0
TEXT
8
RECEIVER_LABELS
1
74
10
8
20
16
30
1.5
11
8
21
16
31
1.5
40
0.3
72
1
73
2
0
LINE
8
RECEIVERS
10
8
20
18
30
1.5
11
61.5
21
23
31
3
0
TEXT
8
RECEIVER_LABELS
1
75
10
8
20
18
30
1.5
11
8
21
18
31
1.5
40
0.3
72
1
73
2
0
LINE
8
RECEIVERS
10
8
20
20
30
1.5
11
61.5
21
23
31
3
0
TEXT
8
RECEIVER_LABELS
1
76
10
8
20
20
30
1.5
11
8
21
20
31
1.5
40
0.3
72
1
73
2
0
LINE
8
RECEIVERS
10
8
20
22
30
1.5
11
61.5
21
23
31
3
0
TEXT
8
RECEIVER_LABELS
1
77
10
8
20
22
30
1.5
11
8
21
22
31
1.5
40
0.3
72
1
73
2
0
LINE
8
RECEIVERS
10
8
20
24
30
1.5
11
61.5
21
23
31
3
0
TEXT
8
RECEIVER_LABELS
1
78
10
8
20
24
30
1.5
11
8
21
24
31
1.5
40
0.3
72
1
73
2
0
LINE
8
RECEIVERS
10
8
20
26
30
1.5
11
61.5
21
23
31
3
0
TEXT
8
RECEIVER_LABELS
1
79
10
8
20
26
30
1.5
11
8
21
26
31
1.5
40
0.3
72
1
73
2
0
LINE
8
RECEIVERS
10
8
20
28
30
1.5
11
61.5
21
23
31
3
0
TEXT
8
RECEIVER_LABELS
1
80
10
8
20
28
30
1.5
11
8
21
28
31
1.5
40
0.3
72
1
73
2
0
LINE
8
RECEIVERS
10
8
20
30
30
1.5
11
61.5
21
23
31
3
0
TEXT
8
RECEIVER_LABELS
1
81
10
8
20
30
30
1.5
11
8
21
30
31
1.5
40
0.3
72
1
73
2
0
LINE
8
RECEIVERS
10
8
20
32
30
1.5
11
61.5
21
23
31
3
0
TEXT
8
RECEIVER_LABELS
1
82
10
8
20
32
30
1.5
11
8
21
32
31
1.5
40
0.3
72
1
73
2
0
LINE
8
RECEIVERS
10
8
20
34
30
1.5
11
61.5
21
23
31
3
0
TEXT
8
RECEIVER_LABELS
1
83
10
8
20
34
30
1.5
11
8
21
34
31
1.5
40
0.3
72
1
73
2
0
LINE
8
RECEIVERS
10
8
20
36
30
1.5
11
61.5
21
23
31
3
0
TEXT
8
RECEIVER_LABELS
1
84
10
8
20
36
30
1.5
11
8
21
36
31
1.5
40
0.3
72
1
73
2
0
LINE
8
RECEIVERS
10
8
20
38
30
1.5
11
61.5
21
23
31
3
0
TEXT
8
RECEIVER_LABELS
1
85
10
8
20
38
30
1.5
11
8
21
38
31
1.5
40
0.3
72
1
73
2
0
LINE
8
RECEIVERS
10
8
20
40
30
1.5
11
61.5
21
23
31
3
0
TEXT
8
RECEIVER_LABELS
1
86
10
8
20
40
30
1.5
11
8
21
40
31
1.5
40
0.3
72
1
73
2
0
LINE
8
RECEIVERS
10
8
20
42
30
1.5
11
61.5
21
23
31
3
0
TEXT
8
RECEIVER_LABELS
1
87
10
8
20
42
30
1.5
11
8
21
42
31
1.5
40
0.3
72
1
73
2
0
LINE
8
RECEIVERS
10
8
20
44
30
1.5
11
61.5
21
23
31
3
0
TEXT
8
RECEIVER_LABELS
1
88
10
8
20
44
30
1.5
11
8
21
44
31
1.5
40
0.3
72
1
73
2
0
LINE
8
RECEIVERS
10
10
20
2
30
1.5
11
61.5
21
23
31
3
0
TEXT
8
RECEIVER_LABELS
1
89
10
10
20
2
30
1.5
11
10
21
2
31
1.5
40
0.3
72
1
73
2
0
LINE
8
RECEIVERS
10
10
20
4
30
1.5
11
61.5
21
23
31
3
0
TEXT
8
RECEIVER_LABELS
1
90
10
10
20
4
30
1.5
11
10
21
4
31
1.5
40
0.3
72
1
73
2
0
LINE
8
RECEIVERS
10
10
20
6
30
1.5
11
61.5
21
23
31
3
0
TEXT
8
RECEIVER_LABELS
1
91
10
10
20
6
30
1.5
11
10
21
6
31
1.5
40
0.3
72
1
73
2
0
LINE
8
RECEIVERS
10
10
20
8
30
1.5
11
61.5
21
23
31
3
0
TEXT
8
RECEIVER_LABELS
1
92
10
10
20
8
30
1.5
11
10
21
8
31
1.5
40
0.3
72
1
73
2
0
LINE
8
RECEIVERS
10
10
20
10
30
1.5
11
61.5
21
23
31
3
0
TEXT
8
RECEIVER_LABELS
1
93
10
10
20
10
30
1.5
11
10
21
10
31
1.5
40
0.3
72
1
73
2
0
LINE
8
RECEIVERS
10
10
20
12
30
1.5
11
61.5
21
23
31
3
0
TEXT
8
RECEIVER_LABELS
1
94
10
10
20
12
30
1.5
11
10
21
12
31
1.5
40
0.3
72
1
73
2
0
LINE
8
RECEIVERS
10
10
20
14
30
1.5
11
61.5
21
23
31
3
0
TEXT
8
RECEIVER_LABELS
1
95
10
10
20
14
30
1.5
11
10
21
14
31
1.5
40
0.3
72
1
73
2
0
LINE
8
RECEIVERS
10
10
20
16
30
1.5
11
61.5
21
23
31
3
0
TEXT
8
RECEIVER_LABELS
1
96
10
10
20
16
30
1.5
11
10
21
16
31
1.5
40
0.3
72
1
73
2
0
LINE
8
RECEIVERS
10
10
20
18
30
1.5
11
61.5
21
23
31
3
0
TEXT
8
RECEIVER_LABELS
1
97
10
10
20
18
30
1.5
11
10
21
18
31
1.5
40
0.3
72
1
73
2
0
LINE
8
RECEIVERS
10
10
20
20
30
1.5
11
61.5
21
23
31
3
0
TEXT
8
RECEIVER_LABELS
1
98
10
10
20
20
30
1.5
11
10
21
20
31
1.5
40
0.3
72
1
73
2
0
LINE
8
RECEIVERS
10
10
20
22
30
1.5
11
61.5
21
23
31
3
0
TEXT
8
RECEIVER_LABELS
1
99
10
10
20
22
30
1.5
11
10
21
22
31
1.5
40
0.3
72
1
73
2
0
LINE
8
RECEIVERS
10
10
20
24
30
1.5
11
61.5
21
23
31
3
0
TEXT
8
RECEIVER_LABELS
1
100
10
10
20
24
30
1.5
11
10
21
24
31
1.5
40
0.3
72
1
73
2
0
LINE
8
RECEIVERS
10
10
20
26
30
1.5
11
61.5
21
23
31
3
0
TEXT
8
RECEIVER_LABELS
1
101
10
10
20
26
30
1.5
11
10
21
26
31
1.5
40
0.3
72
1
73
2
0
LINE
8
RECEIVERS
10
10
20
28
30
1.5
11
61.5
21
23
31
3
0
TEXT
8
RECEIVER_LABELS
1
102
10
10
20
28
30
1.5
11
10
21
28
31
1.5
40
0.3
72
1
73
2
0
LINE
8
RECEIVERS
10
10
20
30
30
1.5
11
61.5
21
23
31
3
0
TEXT
8
RECEIVER_LABELS
1
103
10
10
20
30
30
1.5
11
10
21
30
31
1.5
40
0.3
72
1
73
2
0
LINE
8
RECEIVERS
10
10
20
32
30
1.5
11
61.5
21
23
31
3
0
TEXT
8
RECEIVER_LABELS
1
104
10
10
20
32
30
1.5
11
10
21
32
31
1.5
40
0.3
72
1
73
2
0
LINE
8
RECEIVERS
10
10
20
34
30
1.5
11
61.5
21
23
31
3
0
TEXT
8
RECEIVER_LABELS
1
105
10
10
20
34
30
1.5
11
10
21
34
31
1.5
40
0.3
72
1
73
2
0
LINE
8
RECEIVERS
10
10
20
36
30
1.5
11
61.5
21
23
31
3
0
TEXT
8
RECEIVER_LABELS
1
106
10
10
20
36
30
1.5
11
10
21
36
31
1.5
40
0.3
72
1
73
2
0
LINE
8
RECEIVERS
10
10
20
38
30
1.5
11
61.5
21
23
31
3
0
TEXT
8
RECEIVER_LABELS
1
107
10
10
20
38
30
1.5
11
10
21
38
31
1.5
40
0.3
72
1
73
2
0
LINE
8
RECEIVERS
10
10
20
40
30
1.5
11
61.5
21
23
31
3
0
TEXT
8
RECEIVER_LABELS
1
108
10
10
20
40
30
1.5
11
10
21
40
31
1.5
40
0.3
72
1
73
2
0
LINE
8
RECEIVERS
10
10
20
42
30
1.5
11
61.5
21
23
31
3
0
TEXT
8
RECEIVER_LABELS
1
109
10
10
20
42
30
1.5
11
10
21
42
31
1.5
40
0.3
72
1
73
2
0
LINE
8
RECEIVERS
10
10
20
44
30
1.5
11
61.5
21
23
31
3
0
TEXT
8
RECEIVER_LABELS
1
110
10
10
20
44
30
1.5
11
10
21
44
31
1.5
40
0.3
72
1
73
2
0
LINE
8
RECEIVERS
10
12
20
2
30
1.5
11
61.5
21
23
31
3
0
TEXT
8
RECEIVER_LABELS
1
111
10
12
20
2
30
1.5
11
12
21
2
31
1.5
40
0.3
72
1
73
2
0
LINE
8
RECEIVERS
10
12
20
4
30
1.5
11
61.5
21
23
31
3
0
TEXT
8
RECEIVER_LABELS
1
112
10
12
20
4
30
1.5
11
12
21
4
31
1.5
40
0.3
72
1
73
2
0
LINE
8
RECEIVERS
10
12
20
6
30
1.5
11
61.5
21
23
31
3
0
TEXT
8
RECEIVER_LABELS
1
113
10
12
20
6
30
1.5
11
12
21
6
31
1.5
40
0.3
72
1
73
2
0
LINE
8
RECEIVERS
10
12
20
8
30
1.5
11
61.5
21
23
31
3
0
TEXT
8
RECEIVER_LABELS
1
114
10
12
20
8
30
1.5
11
12
21
8
31
1.5
40
0.3
72
1
73
2
0
LINE
8
RECEIVERS
10
12
20
10
30
1.5
11
61.5
21
23
31
3
0
TEXT
8
RECEIVER_LABELS
1
115
10
12
20
10
30
1.5
11
12
21
10
31
1.5
40
0.3
72
1
73
2
0
LINE
8
RECEIVERS
10
12
20
12
30
1.5
11
61.5
21
23
31
3
0
TEXT
8
RECEIVER_LABELS
1
116
10
12
20
12
30
1.5
11
12
21
12
31
1.5
40
0.3
72
1
73
2
0
LINE
8
RECEIVERS
10
12
20
14
30
1.5
11
61.5
21
23
31
3
0
TEXT
8
RECEIVER_LABELS
1
117
10
12
20
14
30
1.5
11
12
21
14
31
1.5
40
0.3
72
1
73
2
0
LINE
8
RECEIVERS
10
12
20
16
30
1.5
11
61.5
21
23
31
3
0
TEXT
8
RECEIVER_LABELS
1
118
10
12
20
16
30
1.5
11
12
21
16
31
1.5
40
0.3
72
1
73
2
0
LINE
8
RECEIVERS
10
12
20
18
30
1.5
11
61.5
21
23
31
3
0
TEXT
8
RECEIVER_LABELS
1
119
10
12
20
18
30
1.5
11
12
21
18
31
1.5
40
0.3
72
1
73
2
0
LINE
8
RECEIVERS
10
12
20
20
30
1.5
11
61.5
21
23
31
3
0
TEXT
8
RECEIVER_LABELS
1
120
10
12
20
20
30
1.5
11
12
21
20
31
1.5
40
0.3
72
1
73
2
0
LINE
8
RECEIVERS
10
12
20
22
30
1.5
11
61.5
21
23
31
3
0
TEXT
8
RECEIVER_LABELS
1
121
10
12
20
22
30
1.5
11
12
21
22
31
1.5
40
0.3
72
1
73
2
0
LINE
8
RECEIVERS
10
12
20
24
30
1.5
11
61.5
21
23
31
3
0
TEXT
8
RECEIVER_LABELS
1
122
10
12
20
24
30
1.5
11
12
21
24
31
1.5
40
0.3
72
1
73
2
0
LINE
8
RECEIVERS
10
12
20
26
30
1.5
11
61.5
21
23
31
3
0
TEXT
8
RECEIVER_LABELS
1
123
10
12
20
26
30
1.5
11
12
21
26
31
1.5
40
0.3
72
1
73
2
0
LINE
8
RECEIVERS
10
12
20
28
30
1.5
11
61.5
21
23
31
3
0
TEXT
8
RECEIVER_LABELS
1
124
10
12
20
28
30
1.5
11
12
21
28
31
1.5
40
0.3
72
1
73
2
0
LINE
8
RECEIVERS
10
12
20
30
30
1.5
11
61.5
21
23
31
3
0
TEXT
8
RECEIVER_LABELS
1
125
10
12
20
30
30
1.5
11
12
21
30
31
1.5
40
0.3
72
1
73
2
0
LINE
8
RECEIVERS
10
12
20
32
30
1.5
11
61.5
21
23
31
3
0
TEXT
8
RECEIVER_LABELS
1
126
10
12
20
32
30
1.5
11
12
21
32
31
1.5
40
0.3
72
1
73
2
0
LINE
8
RECEIVERS
10
12
20
34
30
1.5
11
61.5
21
23
31
3
0
TEXT
8
RECEIVER_LABELS
1
127
10
12
20
34
30
1.5
11
12
21
34
31
1.5
40
0.3
72
1
73
2
0
LINE
8
RECEIVERS
10
12
20
36
30
1.5
11
61.5
21
23
31
3
0
TEXT
8
RECEIVER_LABELS
1
128
10
12
20
36
30
1.5
11
12
21
36
31
1.5
40
0.3
72
1
73
2
0
LINE
8
RECEIVERS
10
12
20
38
30
1.5
11
61.5
21
23
31
3
0
TEXT
8
RECEIVER_LABELS
1
129
10
12
20
38
30
1.5
11
12
21
38
31
1.5
40
0.3
72
1
73
2
0
LINE
8
RECEIVERS
10
12
20
40
30
1.5
11
61.5
21
23
31
3
0
TEXT
8
RECEIVER_LABELS
1
130
10
12
20
40
30
1.5
11
12
21
40
31
1.5
40
0.3
72
1
73
2
0
LINE
8
RECEIVERS
10
12
20
42
30
1.5
11
61.5
21
23
31
3
0
TEXT
8
RECEIVER_LABELS
1
131
10
12
20
42
30
1.5
11
12
21
42
31
1.5
40
0.3
72
1
73
2
0
LINE
8
RECEIVERS
10
12
20
44
30
1.5
11
61.5
21
23
31
3
0
TEXT
8
RECEIVER_LABELS
1
132
10
12
20
44
30
1.5
11
12
21
44
31
1.5
40
0.3
72
1
73
2
0
LINE
8
RECEIVERS
10
14
20
2
30
1.5
11
61.5
21
23
31
3
0
TEXT
8
RECEIVER_LABELS
1
133
10
14
20
2
30
1.5
11
14
21
2
31
1.5
40
0.3
72
1
73
2
0
LINE
8
RECEIVERS
10
14
20
4
30
1.5
11
61.5
21
23
31
3
0
TEXT
8
RECEIVER_LABELS
1
134
10
14
20
4
30
1.5
11
14
21
4
31
1.5
40
0.3
72
1
73
2
0
LINE
8
RECEIVERS
10
14
20
6
30
1.5
11
61.5
21
23
31
3
0
TEXT
8
RECEIVER_LABELS
1
135
10
14
20
6
30
1.5
11
14
21
6
31
1.5
40
0.3
72
1
73
2
0
LINE
8
RECEIVERS
10
14
20
8
30
1.5
11
61.5
21
23
31
3
0
TEXT
8
RECEIVER_LABELS
1
136
10
14
20
8
30
1.5
11
14
21
8
31
1.5
40
0.3
72
1
73
2
0
LINE
8
RECEIVERS
10
14
20
10
30
1.5
11
61.5
21
23
31
3
0
TEXT
8
RECEIVER_LABELS
1
137
10
14
20
10
30
1.5
11
14
21
10
31
1.5
40
0.3
72
1
73
2
0
LINE
8
RECEIVERS
10
14
20
12
30
1.5
11
61.5
21
23
31
3
0
TEXT
8
RECEIVER_LABELS
1
138
10
14
20
12
30
1.5
11
14
21
12
31
1.5
40
0.3
72
1
73
2
0
LINE
8
RECEIVERS
10
14
20
14
30
1.5
11
61.5
21
23
31
3
0
TEXT
8
RECEIVER_LABELS
1
139
10
14
20
14
30
1.5
11
14
21
14
31
1.5
40
0.3
72
1
73
2
0
LINE
8
RECEIVERS
10
14
20
16
30
1.5
11
61.5
21
23
31
3
0
TEXT
8
RECEIVER_LABELS
1
140
10
14
20
16
30
1.5
11
14
21
16
31
1.5
40
0.3
72
1
73
2
0
LINE
8
RECEIVERS
10
14
20
18
30
1.5
11
61.5
21
23
31
3
0
TEXT
8
RECEIVER_LABELS
1
141
10
14
20
18
30
1.5
11
14
21
18
31
1.5
40
0.3
72
1
73
2
0
LINE
8
RECEIVERS
10
14
20
20
30
1.5
11
61.5
21
23
31
3
0
TEXT
8
RECEIVER_LABELS
1
142
10
14
20
20
30
1.5
11
14
21
20
31
1.5
40
0.3
72
1
73
2
0
LINE
8
RECEIVERS
10
14
20
22
30
1.5
11
61.5
21
23
31
3
0
TEXT
8
RECEIVER_LABELS
1
143
10
14
20
22
30
1.5
11
14
21
22
31
1.5
40
0.3
72
1
73
2
0
LINE
8
RECEIVERS
10
14
20
24
30
1.5
11
61.5
21
23
31
3
0
TEXT
8
RECEIVER_LABELS
1
144
10
14
20
24
30
1.5
11
14
21
24
31
1.5
40
0.3
72
1
73
2
0
LINE
8
RECEIVERS
10
14
20
26
30
1.5
11
61.5
21
23
31
3
0
TEXT
8
RECEIVER_LABELS
1
145
10
14
20
26
30
1.5
11
14
21
26
31
1.5
40
0.3
72
1
73
2
0
LINE
8
RECEIVERS
10
14
20
28
30
1.5
11
61.5
21
23
31
3
0
TEXT
8
RECEIVER_LABELS
1
146
10
14
20
28
30
1.5
11
14
21
28
31
1.5
40
0.3
72
1
73
2
0
LINE
8
RECEIVERS
10
14
20
30
30
1.5
11
61.5
21
23
31
3
0
TEXT
8
RECEIVER_LABELS
1
147
10
14
20
30
30
1.5
11
14
21
30
31
1.5
40
0.3
72
1
73
2
0
LINE
8
RECEIVERS
10
14
20
32
30
1.5
11
61.5
21
23
31
3
0
TEXT
8
RECEIVER_LABELS
1
148
10
14
20
32
30
1.5
11
14
21
32
31
1.5
40
0.3
72
1
73
2
0
LINE
8
RECEIVERS
10
14
20
34
30
1.5
11
61.5
21
23
31
3
0
TEXT
8
RECEIVER_LABELS
1
149
10
14
20
34
30
1.5
11
14
21
34
31
1.5
40
0.3
72
1
73
2
0
LINE
8
RECEIVERS
10
14
20
36
30
1.5
11
61.5
21
23
31
3
0
TEXT
8
RECEIVER_LABELS
1
150
10
14
20
36
30
1.5
11
14
21
36
31
1.5
40
0.3
72
1
73
2
0
LINE
8
RECEIVERS
10
14
20
38
30
1.5
11
61.5
21
23
31
3
0
TEXT
8
RECEIVER_LABELS
1
151
10
14
20
38
30
1.5
11
14
21
38
31
1.5
40
0.3
72
1
73
2
0
LINE
8
RECEIVERS
10
14
20
40
30
1.5
11
61.5
21
23
31
3
0
TEXT
8
RECEIVER_LABELS
1
152
10
14
20
40
30
1.5
11
14
21
40
31
1.5
40
0.3
72
1
73
2
0
LINE
8
RECEIVERS
10
14
20
42
30
1.5
11
61.5
21
23
31
3
0
TEXT
8
RECEIVER_LABELS
1
153
10
14
20
42
30
1.5
11
14
21
42
31
1.5
40
0.3
72
1
73
2
0
LINE
8
RECEIVERS
10
14
20
44
30
1.5
11
61.5
21
23
31
3
0
TEXT
8
RECEIVER_LABELS
1
154
10
14
20
44
30
1.5
11
14
21
44
31
1.5
40
0.3
72
1
73
2
0
LINE
8
RECEIVERS
10
16
20
2
30
1.5
11
61.5
21
23
31
3
0
TEXT
8
RECEIVER_LABELS
1
155
10
16
20
2
30
1.5
11
16
21
2
31
1.5
40
0.3
72
1
73
2
0
LINE
8
RECEIVERS
10
16
20
4
30
1.5
11
61.5
21
23
31
3
0
TEXT
8
RECEIVER_LABELS
1
156
10
16
20
4
30
1.5
11
16
21
4
31
1.5
40
0.3
72
1
73
2
0
LINE
8
RECEIVERS
10
16
20
6
30
1.5
11
61.5
21
23
31
3
0
TEXT
8
RECEIVER_LABELS
1
157
10
16
20
6
30
1.5
11
16
21
6
31
1.5
40
0.3
72
1
73
2
0
LINE
8
RECEIVERS
10
16
20
8
30
1.5
11
61.5
21
23
31
3
0
TEXT
8
RECEIVER_LABELS
1
158
10
16
20
8
30
1.5
11
16
21
8
31
1.5
40
0.3
72
1
73
2
0
LINE
8
RECEIVERS
10
16
20
10
30
1.5
11
61.5
21
23
31
3
0
TEXT
8
RECEIVER_LABELS
1
159
10
16
20
10
30
1.5
11
16
21
10
31
1.5
40
0.3
72
1
73
2
0
LINE
8
RECEIVERS
10
16
20
12
30
1.5
11
61.5
21
23
31
3
0
TEXT
8
RECEIVER_LABELS
1
160
10
16
20
12
30
1.5
11
16
21
12
31
1.5
40
0.3
72
1
73
2
0
LINE
8
RECEIVERS
10
16
20
14
30
1.5
11
61.5
21
23
31
3
0
TEXT
8
RECEIVER_LABELS
1
161
10
16
20
14
30
1.5
11
16
21
14
31
1.5
40
0.3
72
1
73
2
0
LINE
8
RECEIVERS
10
16
20
16
30
1.5
11
61.5
21
23
31
3
0
TEXT
8
RECEIVER_LABELS
1
162
10
16
20
16
30
1.5
11
16
21
16
31
1.5
40
0.3
72
1
73
2
0
LINE
8
RECEIVERS
10
16
20
18
30
1.5
11
61.5
21
23
31
3
0
TEXT
8
RECEIVER_LABELS
1
163
10
16
20
18
30
1.5
11
16
21
18
31
1.5
40
0.3
72
1
73
2
0
LINE
8
RECEIVERS
10
16
20
20
30
1.5
11
61.5
21
23
31
3
0
TEXT
8
RECEIVER_LABELS
1
164
10
16
20
20
30
1.5
11
16
21
20
31
1.5
40
0.3
72
1
73
2
0
LINE
8
RECEIVERS
10
16
20
22
30
1.5
11
61.5
21
23
31
3
0
TEXT
8
RECEIVER_LABELS
1
165
10
16
20
22
30
1.5
11
16
21
22
31
1.5
40
0.3
72
1
73
2
0
LINE
8
RECEIVERS
10
16
20
24
30
1.5
11
61.5
21
23
31
3
0
TEXT
8
RECEIVER_LABELS
1
166
10
16
20
24
30
1.5
11
16
21
24
31
1.5
40
0.3
72
1
73
2
0
LINE
8
RECEIVERS
10
16
20
26
30
1.5
11
61.5
21
23
31
3
0
TEXT
8
RECEIVER_LABELS
1
167
10
16
20
26
30
1.5
11
16
21
26
31
1.5
40
0.3
72
1
73
2
0
LINE
8
RECEIVERS
10
16
20
28
30
1.5
11
61.5
21
23
31
3
0
TEXT
8
RECEIVER_LABELS
1
168
10
16
20
28
30
1.5
11
16
21
28
31
1.5
40
0.3
72
1
73
2
0
LINE
8
RECEIVERS
10
16
20
30
30
1.5
11
61.5
21
23
31
3
0
TEXT
8
RECEIVER_LABELS
1
169
10
16
20
30
30
1.5
11
16
21
30
31
1.5
40
0.3
72
1
73
2
0
LINE
8
RECEIVERS
10
16
20
32
30
1.5
11
61.5
21
23
31
3
0
TEXT
8
RECEIVER_LABELS
1
170
10
16
20
32
30
1.5
11
16
21
32
31
1.5
40
0.3
72
1
73
2
0
LINE
8
RECEIVERS
10
16
20
34
30
1.5
11
61.5
21
23
31
3
0
TEXT
8
RECEIVER_LABELS
1
171
10
16
20
34
30
1.5
11
16
21
34
31
1.5
40
0.3
72
1
73
2
0
LINE
8
RECEIVERS
10
16
20
36
30
1.5
11
61.5
21
23
31
3
0
TEXT
8
RECEIVER_LABELS
1
172
10
16
20
36
30
1.5
11
16
21
36
31
1.5
40
0.3
72
1
73
2
0
LINE
8
RECEIVERS
10
16
20
38
30
1.5
11
61.5
21
23
31
3
0
TEXT
8
RECEIVER_LABELS
1
173
10
16
20
38
30
1.5
11
16
21
38
31
1.5
40
0.3
72
1
73
2
0
LINE
8
RECEIVERS
10
16
20
40
30
1.5
11
61.5
21
23
31
3
0
TEXT
8
RECEIVER_LABELS
1
174
10
16
20
40
30
1.5
11
16
21
40
31
1.5
40
0.3
72
1
73
2
0
LINE
8
RECEIVERS
10
16
20
42
30
1.5
11
61.5
21
23
31
3
0
TEXT
8
RECEIVER_LABELS
1
175
10
16
20
42
30
1.5
11
16
21
42
31
1.5
40
0.3
72
1
73
2
0
LINE
8
RECEIVERS
10
16
20
44
30
1.5
11
61.5
21
23
31
3
0
TEXT
8
RECEIVER_LABELS
1
176
10
16
20
44
30
1.5
11
16
21
44
31
1.5
40
0.3
72
1
73
2
0
LINE
8
RECEIVERS
10
18
20
2
30
1.5
11
61.5
21
23
31
3
0
TEXT
8
RECEIVER_LABELS
1
177
10
18
20
2
30
1.5
11
18
21
2
31
1.5
40
0.3
72
1
73
2
0
LINE
8
RECEIVERS
10
18
20
4
30
1.5
11
61.5
21
23
31
3
0
TEXT
8
RECEIVER_LABELS
1
178
10
18
20
4
30
1.5
11
18
21
4
31
1.5
40
0.3
72
1
73
2
0
LINE
8
RECEIVERS
10
18
20
6
30
1.5
11
61.5
21
23
31
3
0
TEXT
8
RECEIVER_LABELS
1
179
10
18
20
6
30
1.5
11
18
21
6
31
1.5
40
0.3
72
1
73
2
0
LINE
8
RECEIVERS
10
18
20
8
30
1.5
11
61.5
21
23
31
3
0
TEXT
8
RECEIVER_LABELS
1
180
10
18
20
8
30
1.5
11
18
21
8
31
1.5
40
0.3
72
1
73
2
0
LINE
8
RECEIVERS
10
18
20
10
30
1.5
11
61.5
21
23
31
3
0
TEXT
8
RECEIVER_LABELS
1
181
10
18
20
10
30
1.5
11
18
21
10
31
1.5
40
0.3
72
1
73
2
0
LINE
8
RECEIVERS
10
18
20
12
30
1.5
11
61.5
21
23
31
3
0
TEXT
8
RECEIVER_LABELS
1
182
10
18
20
12
30
1.5
11
18
21
12
31
1.5
40
0.3
72
1
73
2
0
LINE
8
RECEIVERS
10
18
20
14
30
1.5
11
61.5
21
23
31
3
0
TEXT
8
RECEIVER_LABELS
1
183
10
18
20
14
30
1.5
11
18
21
14
31
1.5
40
0.3
72
1
73
2
0
LINE
8
RECEIVERS
10
18
20
16
30
1.5
11
61.5
21
23
31
3
0
TEXT
8
RECEIVER_LABELS
1
184
10
18
20
16
30
1.5
11
18
21
16
31
1.5
40
0.3
72
1
73
2
0
LINE
8
RECEIVERS
10
18
20
18
30
1.5
11
61.5
21
23
31
3
0
TEXT
8
RECEIVER_LABELS
1
185
10
18
20
18
30
1.5
11
18
21
18
31
1.5
40
0.3
72
1
73
2
0
LINE
8
RECEIVERS
10
18
20
20
30
1.5
11
61.5
21
23
31
3
0
TEXT
8
RECEIVER_LABELS
1
186
10
18
20
20
30
1.5
11
18
21
20
31
1.5
40
0.3
72
1
73
2
0
LINE
8
RECEIVERS
10
18
20
22
30
1.5
11
61.5
21
23
31
3
0
TEXT
8
RECEIVER_LABELS
1
187
10
18
20
22
30
1.5
11
18
21
22
31
1.5
40
0.3
72
1
73
2
0
LINE
8
RECEIVERS
10
18
20
24
30
1.5
11
61.5
21
23
31
3
0
TEXT
8
RECEIVER_LABELS
1
188
10
18
20
24
30
1.5
11
18
21
24
31
1.5
40
0.3
72
1
73
2
0
LINE
8
RECEIVERS
10
18
20
26
30
1.5
11
61.5
21
23
31
3
0
TEXT
8
RECEIVER_LABELS
1
189
10
18
20
26
30
1.5
11
18
21
26
31
1.5
40
0.3
72
1
73
2
0
LINE
8
RECEIVERS
10
18
20
28
30
1.5
11
61.5
21
23
31
3
0
TEXT
8
RECEIVER_LABELS
1
190
10
18
20
28
30
1.5
11
18
21
28
31
1.5
40
0.3
72
1
73
2
0
LINE
8
RECEIVERS
10
18
20
30
30
1.5
11
61.5
21
23
31
3
0
TEXT
8
RECEIVER_LABELS
1
191
10
18
20
30
30
1.5
11
18
21
30
31
1.5
40
0.3
72
1
73
2
0
LINE
8
RECEIVERS
10
18
20
32
30
1.5
11
61.5
21
23
31
3
0
TEXT
8
RECEIVER_LABELS
1
192
10
18
20
32
30
1.5
11
18
21
32
31
1.5
40
0.3
72
1
73
2
0
LINE
8
RECEIVERS
10
18
20
34
30
1.5
11
61.5
21
23
31
3
0
TEXT
8
RECEIVER_LABELS
1
193
10
18
20
34
30
1.5
11
18
21
34
31
1.5
40
0.3
72
1
73
2
0
LINE
8
RECEIVERS
10
18
20
36
30
1.5
11
61.5
21
23
31
3
0
TEXT
8
RECEIVER_LABELS
1
194
10
18
20
36
30
1.5
11
18
21
36
31
1.5
40
0.3
72
1
73
2
0
LINE
8
RECEIVERS
10
18
20
38
30
1.5
11
61.5
21
23
31
3
0
TEXT
8
RECEIVER_LABELS
1
195
10
18
20
38
30
1.5
11
18
21
38
31
1.5
40
0.3
72
1
73
2
0
LINE
8
RECEIVERS
10
18
20
40
30
1.5
11
61.5
21
23
31
3
0
TEXT
8
RECEIVER_LABELS
1
196
10
18
20
40
30
1.5
11
18
21
40
31
1.5
40
0.3
72
1
73
2
0
LINE
8
RECEIVERS
10
18
20
42
30
1.5
11
61.5
21
23
31
3
0
TEXT
8
RECEIVER_LABELS
1
197
10
18
20
42
30
1.5
11
18
21
42
31
1.5
40
0.3
72
1
73
2
0
LINE
8
RECEIVERS
10
18
20
44
30
1.5
11
61.5
21
23
31
3
0
TEXT
8
RECEIVER_LABELS
1
198
10
18
20
44
30
1.5
11
18
21
44
31
1.5
40
0.3
72
1
73
2
0
LINE
8
RECEIVERS
10
20
20
2
30
1.5
11
61.5
21
23
31
3
0
TEXT
8
RECEIVER_LABELS
1
199
10
20
20
2
30
1.5
11
20
21
2
31
1.5
40
0.3
72
1
73
2
0
LINE
8
RECEIVERS
10
20
20
4
30
1.5
11
61.5
21
23
31
3
0
TEXT
8
RECEIVER_LABELS
1
200
10
20
20
4
30
1.5
11
20
21
4
31
1.5
40
0.3
72
1
73
2
0
LINE
8
RECEIVERS
10
20
20
6
30
1.5
11
61.5
21
23
31
3
0
TEXT
8
RECEIVER_LABELS
1
201
10
20
20
6
30
1.5
11
20
21
6
31
1.5
40
0.3
72
1
73
2
0
LINE
8
RECEIVERS
10
20
20
8
30
1.5
11
61.5
21
23
31
3
0
TEXT
8
RECEIVER_LABELS
1
202
10
20
20
8
30
1.5
11
20
21
8
31
1.5
40
0.3
72
1
73
2
0
LINE
8
RECEIVERS
10
20
20
10
30
1.5
11
61.5
21
23
31
3
0
TEXT
8
RECEIVER_LABELS
1
203
10
20
20
10
30
1.5
11
20
21
10
31
1.5
40
0.3
72
1
73
2
0
LINE
8
RECEIVERS
10
20
20
12
30
1.5
11
61.5
21
23
31
3
0
TEXT
8
RECEIVER_LABELS
1
204
10
20
20
12
30
1.5
11
20
21
12
31
1.5
40
0.3
72
1
73
2
0
LINE
8
RECEIVERS
10
20
20
14
30
1.5
11
61.5
21
23
31
3
0
TEXT
8
RECEIVER_LABELS
1
205
10
20
20
14
30
1.5
11
20
21
14
31
1.5
40
0.3
72
1
73
2
0
LINE
8
RECEIVERS
10
20
20
16
30
1.5
11
61.5
21
23
31
3
0
TEXT
8
RECEIVER_LABELS
1
206
10
20
20
16
30
1.5
11
20
21
16
31
1.5
40
0.3
72
1
73
2
0
LINE
8
RECEIVERS
10
20
20
18
30
1.5
11
61.5
21
23
31
3
0
TEXT
8
RECEIVER_LABELS
1
207
10
20
20
18
30
1.5
11
20
21
18
31
1.5
40
0.3
72
1
73
2
0
LINE
8
RECEIVERS
10
20
20
20
30
1.5
11
61.5
21
23
31
3
0
TEXT
8
RECEIVER_LABELS
1
208
10
20
20
20
30
1.5
11
20
21
20
31
1.5
40
0.3
72
1
73
2
0
LINE
8
RECEIVERS
10
20
20
22
30
1.5
11
61.5
21
23
31
3
0
TEXT
8
RECEIVER_LABELS
1
209
10
20
20
22
30
1.5
11
20
21
22
31
1.5
40
0.3
72
1
73
2
0
LINE
8
RECEIVERS
10
20
20
24
30
1.5
11
61.5
21
23
31
3
0
TEXT
8
RECEIVER_LABELS
1
210
10
20
20
24
30
1.5
11
20
21
24
31
1.5
40
0.3
72
1
73
2
0
LINE
8
RECEIVERS
10
20
20
26
30
1.5
11
61.5
21
23
31
3
0
TEXT
8
RECEIVER_LABELS
1
211
10
20
20
26
30
1.5
11
20
21
26
31
1.5
40
0.3
72
1
73
2
0
LINE
8
RECEIVERS
10
20
20
28
30
1.5
11
61.5
21
23
31
3
0
TEXT
8
RECEIVER_LABELS
1
212
10
20
20
28
30
1.5
11
20
21
28
31
1.5
40
0.3
72
1
73
2
0
LINE
8
RECEIVERS
10
20
20
30
30
1.5
11
61.5
21
23
31
3
0
TEXT
8
RECEIVER_LABELS
1
213
10
20
20
30
30
1.5
11
20
21
30
31
1.5
40
0.3
72
1
73
2
0
LINE
8
RECEIVERS
10
20
20
32
30
1.5
11
61.5
21
23
31
3
0
TEXT
8
RECEIVER_LABELS
1
214
10
20
20
32
30
1.5
11
20
21
32
31
1.5
40
0.3
72
1
73
2
0
LINE
8
RECEIVERS
10
20
20
34
30
1.5
11
61.5
21
23
31
3
0
TEXT
8
RECEIVER_LABELS
1
215
10
20
20
34
30
1.5
11
20
21
34
31
1.5
40
0.3
72
1
73
2
0
LINE
8
RECEIVERS
10
20
20
36
30
1.5
11
61.5
21
23
31
3
0
TEXT
8
RECEIVER_LABELS
1
216
10
20
20
36
30
1.5
11
20
21
36
31
1.5
40
0.3
72
1
73
2
0
LINE
8
RECEIVERS
10
20
20
38
30
1.5
11
61.5
21
23
31
3
0
TEXT
8
RECEIVER_LABELS
1
217
10
20
20
38
30
1.5
11
20
21
38
31
1.5
40
0.3
72
1
73
2
0
LINE
8
RECEIVERS
10
20
20
40
30
1.5
11
61.5
21
23
31
3
0
TEXT
8
RECEIVER_LABELS
1
218
10
20
20
40
30
1.5
11
20
21
40
31
1.5
40
0.3
72
1
73
2
0
LINE
8
RECEIVERS
10
20
20
42
30
1.5
11
61.5
21
23
31
3
0
TEXT
8
RECEIVER_LABELS
1
219
10
20
20
42
30
1.5
11
20
21
42
31
1.5
40
0.3
72
1
73
2
0
LINE
8
RECEIVERS
10
20
20
44
30
1.5
11
61.5
21
23
31
3
0
TEXT
8
RECEIVER_LABELS
1
220
10
20
20
44
30
1.5
11
20
21
44
31
1.5
40
0.3
72
1
73
2
0
LINE
8
RECEIVERS
10
22
20
2
30
1.5
11
61.5
21
23
31
3
0
TEXT
8
RECEIVER_LABELS
1
221
10
22
20
2
30
1.5
11
22
21
2
31
1.5
40
0.3
72
1
73
2
0
LINE
8
RECEIVERS
10
22
20
4
30
1.5
11
61.5
21
23
31
3
0
TEXT
8
RECEIVER_LABELS
1
222
10
22
20
4
30
1.5
11
22
21
4
31
1.5
40
0.3
72
1
73
2
0
LINE
8
RECEIVERS
10
22
20
6
30
1.5
11
61.5
21
23
31
3
0
TEXT
8
RECEIVER_LABELS
1
223
10
22
20
6
30
1.5
11
22
21
6
31
1.5
40
0.3
72
1
73
2
0
LINE
8
RECEIVERS
10
22
20
8
30
1.5
11
61.5
21
23
31
3
0
TEXT
8
RECEIVER_LABELS
1
224
10
22
20
8
30
1.5
11
22
21
8
31
1.5
40
0.3
72
1
73
2
0
LINE
8
RECEIVERS
10
22
20
10
30
1.5
11
61.5
21
23
31
3
0
TEXT
8
RECEIVER_LABELS
1
225
10
22
20
10
30
1.5
11
22
21
10
31
1.5
40
0.3
72
1
73
2
0
LINE
8
RECEIVERS
10
22
20
12
30
1.5
11
61.5
21
23
31
3
0
TEXT
8
RECEIVER_LABELS
1
226
10
22
20
12
30
1.5
11
22
21
12
31
1.5
40
0.3
72
1
73
2
0
LINE
8
RECEIVERS
10
22
20
14
30
1.5
11
61.5
21
23
31
3
0
TEXT
8
RECEIVER_LABELS
1
227
10
22
20
14
30
1.5
11
22
21
14
31
1.5
40
0.3
72
1
73
2
0
LINE
8
RECEIVERS
10
22
20
16
30
1.5
11
61.5
21
23
31
3
0
TEXT
8
RECEIVER_LABELS
1
228
10
22
20
16
30
1.5
11
22
21
16
31
1.5
40
0.3
72
1
73
2
0
LINE
8
RECEIVERS
10
22
20
18
30
1.5
11
61.5
21
23
31
3
0
TEXT
8
RECEIVER_LABELS
1
229
10
22
20
18
30
1.5
11
22
21
18
31
1.5
40
0.3
72
1
73
2
0
LINE
8
RECEIVERS
10
22
20
20
30
1.5
11
61.5
21
23
31
3
0
TEXT
8
RECEIVER_LABELS
1
230
10
22
20
20
30
1.5
11
22
21
20
31
1.5
40
0.3
72
1
73
2
0
LINE
8
RECEIVERS
10
22
20
22
30
1.5
11
61.5
21
23
31
3
0
TEXT
8
RECEIVER_LABELS
1
231
10
22
20
22
30
1.5
11
22
21
22
31
1.5
40
0.3
72
1
73
2
0
LINE
8
RECEIVERS
10
22
20
24
30
1.5
11
61.5
21
23
31
3
0
TEXT
8
RECEIVER_LABELS
1
232
10
22
20
24
30
1.5
11
22
21
24
31
1.5
40
0.3
72
1
73
2
0
LINE
8
RECEIVERS
10
22
20
26
30
1.5
11
61.5
21
23
31
3
0
TEXT
8
RECEIVER_LABELS
1
233
10
22
20
26
30
1.5
11
22
21
26
31
1.5
40
0.3
72
1
73
2
0
LINE
8
RECEIVERS
10
22
20
28
30
1.5
11
61.5
21
23
31
3
0
TEXT
8
RECEIVER_LABELS
1
234
10
22
20
28
30
1.5
11
22
21
28
31
1.5
40
0.3
72
1
73
2
0
LINE
8
RECEIVERS
10
22
20
30
30
1.5
11
61.5
21
23
31
3
0
TEXT
8
RECEIVER_LABELS
1
235
10
22
20
30
30
1.5
11
22
21
30
31
1.5
40
0.3
72
1
73
2
0
LINE
8
RECEIVERS
10
22
20
32
30
1.5
11
61.5
21
23
31
3
0
TEXT
8
RECEIVER_LABELS
1
236
10
22
20
32
30
1.5
11
22
21
32
31
1.5
40
0.3
72
1
73
2
0
LINE
8
RECEIVERS
10
22
20
34
30
1.5
11
61.5
21
23
31
3
0
TEXT
8
RECEIVER_LABELS
1
237
10
22
20
34
30
1.5
11
22
21
34
31
1.5
40
0.3
72
1
73
2
0
LINE
8
RECEIVERS
10
22
20
36
30
1.5
11
61.5
21
23
31
3
0
TEXT
8
RECEIVER_LABELS
1
238
10
22
20
36
30
1.5
11
22
21
36
31
1.5
40
0.3
72
1
73
2
0
LINE
8
RECEIVERS
10
22
20
38
30
1.5
11
61.5
21
23
31
3
0
TEXT
8
RECEIVER_LABELS
1
239
10
22
20
38
30
1.5
11
22
21
38
31
1.5
40
0.3
72
1
73
2
0
LINE
8
RECEIVERS
10
22
20
40
30
1.5
11
61.5
21
23
31
3
0
TEXT
8
RECEIVER_LABELS
1
240
10
22
20
40
30
1.5
11
22
21
40
31
1.5
40
0.3
72
1
73
2
0
LINE
8
RECEIVERS
10
22
20
42
30
1.5
11
61.5
21
23
31
3
0
TEXT
8
RECEIVER_LABELS
1
241
10
22
20
42
30
1.5
11
22
21
42
31
1.5
40
0.3
72
1
73
2
0
LINE
8
RECEIVERS
10
22
20
44
30
1.5
11
61.5
21
23
31
3
0
TEXT
8
RECEIVER_LABELS
1
242
10
22
20
44
30
1.5
11
22
21
44
31
1.5
40
0.3
72
1
73
2
0
LINE
8
RECEIVERS
10
24
20
2
30
1.5
11
61.5
21
23
31
3
0
TEXT
8
RECEIVER_LABELS
1
243
10
24
20
2
30
1.5
11
24
21
2
31
1.5
40
0.3
72
1
73
2
0
LINE
8
RECEIVERS
10
24
20
4
30
1.5
11
61.5
21
23
31
3
0
TEXT
8
RECEIVER_LABELS
1
244
10
24
20
4
30
1.5
11
24
21
4
31
1.5
40
0.3
72
1
73
2
0
LINE
8
RECEIVERS
10
24
20
6
30
1.5
11
61.5
21
23
31
3
0
TEXT
8
RECEIVER_LABELS
1
245
10
24
20
6
30
1.5
11
24
21
6
31
1.5
40
0.3
72
1
73
2
0
LINE
8
RECEIVERS
10
24
20
8
30
1.5
11
61.5
21
23
31
3
0
TEXT
8
RECEIVER_LABELS
1
246
10
24
20
8
30
1.5
11
24
21
8
31
1.5
40
0.3
72
1
73
2
0
LINE
8
RECEIVERS
10
24
20
10
30
1.5
11
61.5
21
23
31
3
0
TEXT
8
RECEIVER_LABELS
1
247
10
24
20
10
30
1.5
11
24
21
10
31
1.5
40
0.3
72
1
73
2
0
LINE
8
RECEIVERS
10
24
20
12
30
1.5
11
61.5
21
23
31
3
0
TEXT
8
RECEIVER_LABELS
1
248
10
24
20
12
30
1.5
11
24
21
12
31
1.5
40
0.3
72
1
73
2
0
LINE
8
RECEIVERS
10
24
20
14
30
1.5
11
61.5
21
23
31
3
0
TEXT
8
RECEIVER_LABELS
1
249
10
24
20
14
30
1.5
11
24
21
14
31
1.5
40
0.3
72
1
73
2
0
LINE
8
RECEIVERS
10
24
20
16
30
1.5
11
61.5
21
23
31
3
0
TEXT
8
RECEIVER_LABELS
1
250
10
24
20
16
30
1.5
11
24
21
16
31
1.5
40
0.3
72
1
73
2
0
LINE
8
RECEIVERS
10
24
20
18
30
1.5
11
61.5
21
23
31
3
0
TEXT
8
RECEIVER_LABELS
1
251
10
24
20
18
30
1.5
11
24
21
18
31
1.5
40
0.3
72
1
73
2
0
LINE
8
RECEIVERS
10
24
20
20
30
1.5
11
61.5
21
23
31
3
0
TEXT
8
RECEIVER_LABELS
1
252
10
24
20
20
30
1.5
11
24
21
20
31
1.5
40
0.3
72
1
73
2
0
LINE
8
RECEIVERS
10
24
20
22
30
1.5
11
61.5
21
23
31
3
0
TEXT
8
RECEIVER_LABELS
1
253
10
24
20
22
30
1.5
11
24
21
22
31
1.5
40
0.3
72
1
73
2
0
LINE
8
RECEIVERS
10
24
20
24
30
1.5
11
61.5
21
23
31
3
0
TEXT
8
RECEIVER_LABELS
1
254
10
24
20
24
30
1.5
11
24
21
24
31
1.5
40
0.3
72
1
73
2
0
LINE
8
RECEIVERS
10
24
20
26
30
1.5
11
61.5
21
23
31
3
0
TEXT
8
RECEIVER_LABELS
1
255
10
24
20
26
30
1.5
11
24
21
26
31
1.5
40
0.3
72
1
73
2
0
LINE
8
RECEIVERS
10
24
20
28
30
1.5
11
61.5
21
23
31
3
0
TEXT
8
RECEIVER_LABELS
1
256
10
24
20
28
30
1.5
11
24
21
28
31
1.5
40
0.3
72
1
73
2
0
LINE
8
RECEIVERS
10
24
20
30
30
1.5
11
61.5
21
23
31
3
0
TEXT
8
RECEIVER_LABELS
1
257
10
24
20
30
30
1.5
11
24
21
30
31
1.5
40
0.3
72
1
73
2
0
LINE
8
RECEIVERS
10
24
20
32
30
1.5
11
61.5
21
23
31
3
0
TEXT
8
RECEIVER_LABELS
1
258
10
24
20
32
30
1.5
11
24
21
32
31
1.5
40
0.3
72
1
73
2
0
LINE
8
RECEIVERS
10
24
20
34
30
1.5
11
61.5
21
23
31
3
0
TEXT
8
RECEIVER_LABELS
1
259
10
24
20
34
30
1.5
11
24
21
34
31
1.5
40
0.3
72
1
73
2
0
LINE
8
RECEIVERS
10
24
20
36
30
1.5
11
61.5
21
23
31
3
0
TEXT
8
RECEIVER_LABELS
1
260
10
24
20
36
30
1.5
11
24
21
36
31
1.5
40
0.3
72
1
73
2
0
LINE
8
RECEIVERS
10
24
20
38
30
1.5
11
61.5
21
23
31
3
0
TEXT
8
RECEIVER_LABELS
1
261
10
24
20
38
30
1.5
11
24
21
38
31
1.5
40
0.3
72
1
73
2
0
LINE
8
RECEIVERS
10
24
20
40
30
1.5
11
61.5
21
23
31
3
0
TEXT
8
RECEIVER_LABELS
1
262
10
24
20
40
30
1.5
11
24
21
40
31
1.5
40
0.3
72
1
73
2
0
LINE
8
RECEIVERS
10
24
20
42
30
1.5
11
61.5
21
23
31
3
0
TEXT
8
RECEIVER_LABELS
1
263
10
24
20
42
30
1.5
11
24
21
42
31
1.5
40
0.3
72
1
73
2
0
LINE
8
RECEIVERS
10
24
20
44
30
1.5
11
61.5
21
23
31
3
0
TEXT
8
RECEIVER_LABELS
1
264
10
24
20
44
30
1.5
11
24
21
44
31
1.5
40
0.3
72
1
73
2
0
LINE
8
RECEIVERS
10
26
20
2
30
1.5
11
61.5
21
23
31
3
0
TEXT
8
RECEIVER_LABELS
1
265
10
26
20
2
30
1.5
11
26
21
2
31
1.5
40
0.3
72
1
73
2
0
LINE
8
RECEIVERS
10
26
20
4
30
1.5
11
61.5
21
23
31
3
0
TEXT
8
RECEIVER_LABELS
1
266
10
26
20
4
30
1.5
11
26
21
4
31
1.5
40
0.3
72
1
73
2
0
LINE
8
RECEIVERS
10
26
20
6
30
1.5
11
61.5
21
23
31
3
0
TEXT
8
RECEIVER_LABELS
1
267
10
26
20
6
30
1.5
11
26
21
6
31
1.5
40
0.3
72
1
73
2
0
LINE
8
RECEIVERS
10
26
20
8
30
1.5
11
61.5
21
23
31
3
0
TEXT
8
RECEIVER_LABELS
1
268
10
26
20
8
30
1.5
11
26
21
8
31
1.5
40
0.3
72
1
73
2
0
LINE
8
RECEIVERS
10
26
20
10
30
1.5
11
61.5
21
23
31
3
0
TEXT
8
RECEIVER_LABELS
1
269
10
26
20
10
30
1.5
11
26
21
10
31
1.5
40
0.3
72
1
73
2
0
LINE
8
RECEIVERS
10
26
20
12
30
1.5
11
61.5
21
23
31
3
0
TEXT
8
RECEIVER_LABELS
1
270
10
26
20
12
30
1.5
11
26
21
12
31
1.5
40
0.3
72
1
73
2
0
LINE
8
RECEIVERS
10
26
20
14
30
1.5
11
61.5
21
23
31
3
0
TEXT
8
RECEIVER_LABELS
1
271
10
26
20
14
30
1.5
11
26
21
14
31
1.5
40
0.3
72
1
73
2
0
LINE
8
RECEIVERS
10
26
20
16
30
1.5
11
61.5
21
23
31
3
0
TEXT
8
RECEIVER_LABELS
1
272
10
26
20
16
30
1.5
11
26
21
16
31
1.5
40
0.3
72
1
73
2
0
LINE
8
RECEIVERS
10
26
20
18
30
1.5
11
61.5
21
23
31
3
0
TEXT
8
RECEIVER_LABELS
1
273
10
26
20
18
30
1.5
11
26
21
18
31
1.5
40
0.3
72
1
73
2
0
LINE
8
RECEIVERS
10
26
20
20
30
1.5
11
61.5
21
23
31
3
0
TEXT
8
RECEIVER_LABELS
1
274
10
26
20
20
30
1.5
11
26
21
20
31
1.5
40
0.3
72
1
73
2
0
LINE
8
RECEIVERS
10
26
20
22
30
1.5
11
61.5
21
23
31
3
0
TEXT
8
RECEIVER_LABELS
1
275
10
26
20
22
30
1.5
11
26
21
22
31
1.5
40
0.3
72
1
73
2
0
LINE
8
RECEIVERS
10
26
20
24
30
1.5
11
61.5
21
23
31
3
0
TEXT
8
RECEIVER_LABELS
1
276
10
26
20
24
30
1.5
11
26
21
24
31
1.5
40
0.3
72
1
73
2
0
LINE
8
RECEIVERS
10
26
20
26
30
1.5
11
61.5
21
23
31
3
0
TEXT
8
RECEIVER_LABELS
1
277
10
26
20
26
30
1.5
11
26
21
26
31
1.5
40
0.3
72
1
73
2
0
LINE
8
RECEIVERS
10
26
20
28
30
1.5
11
61.5
21
23
31
3
0
TEXT
8
RECEIVER_LABELS
1
278
10
26
20
28
30
1.5
11
26
21
28
31
1.5
40
0.3
72
1
73
2
0
LINE
8
RECEIVERS
10
26
20
30
30
1.5
11
61.5
21
23
31
3
0
TEXT
8
RECEIVER_LABELS
1
279
10
26
20
30
30
1.5
11
26
21
30
31
1.5
40
0.3
72
1
73
2
0
LINE
8
RECEIVERS
10
26
20
32
30
1.5
11
61.5
21
23
31
3
0
TEXT
8
RECEIVER_LABELS
1
280
10
26
20
32
30
1.5
11
26
21
32
31
1.5
40
0.3
72
1
73
2
0
LINE
8
RECEIVERS
10
26
20
34
30
1.5
11
61.5
21
23
31
3
0
TEXT
8
RECEIVER_LABELS
1
281
10
26
20
34
30
1.5
11
26
21
34
31
1.5
40
0.3
72
1
73
2
0
LINE
8
RECEIVERS
10
26
20
36
30
1.5
11
61.5
21
23
31
3
0
TEXT
8
RECEIVER_LABELS
1
282
10
26
20
36
30
1.5
11
26
21
36
31
1.5
40
0.3
72
1
73
2
0
LINE
8
RECEIVERS
10
26
20
38
30
1.5
11
61.5
21
23
31
3
0
TEXT
8
RECEIVER_LABELS
1
283
10
26
20
38
30
1.5
11
26
21
38
31
1.5
40
0.3
72
1
73
2
0
LINE
8
RECEIVERS
10
26
20
40
30
1.5
11
61.5
21
23
31
3
0
TEXT
8
RECEIVER_LABELS
1
284
10
26
20
40
30
1.5
11
26
21
40
31
1.5
40
0.3
72
1
73
2
0
LINE
8
RECEIVERS
10
26
20
42
30
1.5
11
61.5
21
23
31
3
0
TEXT
8
RECEIVER_LABELS
1
285
10
26
20
42
30
1.5
11
26
21
42
31
1.5
40
0.3
72
1
73
2
0
LINE
8
RECEIVERS
10
26
20
44
30
1.5
11
61.5
21
23
31
3
0
TEXT
8
RECEIVER_LABELS
1
286
10
26
20
44
30
1.5
11
26
21
44
31
1.5
40
0.3
72
1
73
2
0
LINE
8
RECEIVERS
10
28
20
2
30
1.5
11
61.5
21
23
31
3
0
TEXT
8
RECEIVER_LABELS
1
287
10
28
20
2
30
1.5
11
28
21
2
31
1.5
40
0.3
72
1
73
2
0
LINE
8
RECEIVERS
10
28
20
4
30
1.5
11
61.5
21
23
31
3
0
TEXT
8
RECEIVER_LABELS
1
288
10
28
20
4
30
1.5
11
28
21
4
31
1.5
40
0.3
72
1
73
2
0
LINE
8
RECEIVERS
10
28
20
6
30
1.5
11
61.5
21
23
31
3
0
TEXT
8
RECEIVER_LABELS
1
289
10
28
20
6
30
1.5
11
28
21
6
31
1.5
40
0.3
72
1
73
2
0
LINE
8
RECEIVERS
10
28
20
8
30
1.5
11
61.5
21
23
31
3
0
TEXT
8
RECEIVER_LABELS
1
290
10
28
20
8
30
1.5
11
28
21
8
31
1.5
40
0.3
72
1
73
2
0
LINE
8
RECEIVERS
10
28
20
10
30
1.5
11
61.5
21
23
31
3
0
TEXT
8
RECEIVER_LABELS
1
291
10
28
20
10
30
1.5
11
28
21
10
31
1.5
40
0.3
72
1
73
2
0
LINE
8
RECEIVERS
10
28
20
12
30
1.5
11
61.5
21
23
31
3
0
TEXT
8
RECEIVER_LABELS
1
292
10
28
20
12
30
1.5
11
28
21
12
31
1.5
40
0.3
72
1
73
2
0
LINE
8
RECEIVERS
10
28
20
14
30
1.5
11
61.5
21
23
31
3
0
TEXT
8
RECEIVER_LABELS
1
293
10
28
20
14
30
1.5
11
28
21
14
31
1.5
40
0.3
72
1
73
2
0
LINE
8
RECEIVERS
10
28
20
16
30
1.5
11
61.5
21
23
31
3
0
TEXT
8
RECEIVER_LABELS
1
294
10
28
20
16
30
1.5
11
28
21
16
31
1.5
40
0.3
72
1
73
2
0
LINE
8
RECEIVERS
10
28
20
18
30
1.5
11
61.5
21
23
31
3
0
TEXT
8
RECEIVER_LABELS
1
295
10
28
20
18
30
1.5
11
28
21
18
31
1.5
40
0.3
72
1
73
2
0
LINE
8
RECEIVERS
10
28
20
20
30
1.5
11
61.5
21
23
31
3
0
TEXT
8
RECEIVER_LABELS
1
296
10
28
20
20
30
1.5
11
28
21
20
31
1.5
40
0.3
72
1
73
2
0
LINE
8
RECEIVERS
10
28
20
22
30
1.5
11
61.5
21
23
31
3
0
TEXT
8
RECEIVER_LABELS
1
297
10
28
20
22
30
1.5
11
28
21
22
31
1.5
40
0.3
72
1
73
2
0
LINE
8
RECEIVERS
10
28
20
24
30
1.5
11
61.5
21
23
31
3
0
TEXT
8
RECEIVER_LABELS
1
298
10
28
20
24
30
1.5
11
28
21
24
31
1.5
40
0.3
72
1
73
2
0
LINE
8
RECEIVERS
10
28
20
26
30
1.5
11
61.5
21
23
31
3
0
TEXT
8
RECEIVER_LABELS
1
299
10
28
20
26
30
1.5
11
28
21
26
31
1.5
40
0.3
72
1
73
2
0
LINE
8
RECEIVERS
10
28
20
28
30
1.5
11
61.5
21
23
31
3
0
TEXT
8
RECEIVER_LABELS
1
300
10
28
20
28
30
1.5
11
28
21
28
31
1.5
40
0.3
72
1
73
2
0
LINE
8
RECEIVERS
10
28
20
30
30
1.5
11
61.5
21
23
31
3
0
TEXT
8
RECEIVER_LABELS
1
301
10
28
20
30
30
1.5
11
28
21
30
31
1.5
40
0.3
72
1
73
2
0
LINE
8
RECEIVERS
10
28
20
32
30
1.5
11
61.5
21
23
31
3
0
TEXT
8
RECEIVER_LABELS
1
302
10
28
20
32
30
1.5
11
28
21
32
31
1.5
40
0.3
72
1
73
2
0
LINE
8
RECEIVERS
10
28
20
34
30
1.5
11
61.5
21
23
31
3
0
TEXT
8
RECEIVER_LABELS
1
303
10
28
20
34
30
1.5
11
28
21
34
31
1.5
40
0.3
72
1
73
2
0
LINE
8
RECEIVERS
10
28
20
36
30
1.5
11
61.5
21
23
31
3
0
TEXT
8
RECEIVER_LABELS
1
304
10
28
20
36
30
1.5
11
28
21
36
31
1.5
40
0.3
72
1
73
2
0
LINE
8
RECEIVERS
10
28
20
38
30
1.5
11
61.5
21
23
31
3
0
TEXT
8
RECEIVER_LABELS
1
305
10
28
20
38
30
1.5
11
28
21
38
31
1.5
40
0.3
72
1
73
2
0
LINE
8
RECEIVERS
10
28
20
40
30
1.5
11
61.5
21
23
31
3
0
TEXT
8
RECEIVER_LABELS
1
306
10
28
20
40
30
1.5
11
28
21
40
31
1.5
40
0.3
72
1
73
2
0
LINE
8
RECEIVERS
10
28
20
42
30
1.5
11
61.5
21
23
31
3
0
TEXT
8
RECEIVER_LABELS
1
307
10
28
20
42
30
1.5
11
28
21
42
31
1.5
40
0.3
72
1
73
2
0
LINE
8
RECEIVERS
10
28
20
44
30
1.5
11
61.5
21
23
31
3
0
TEXT
8
RECEIVER_LABELS
1
308
10
28
20
44
30
1.5
11
28
21
44
31
1.5
40
0.3
72
1
73
2
0
LINE
8
RECEIVERS
10
30
20
2
30
1.5
11
61.5
21
23
31
3
0
TEXT
8
RECEIVER_LABELS
1
309
10
30
20
2
30
1.5
11
30
21
2
31
1.5
40
0.3
72
1
73
2
0
LINE
8
RECEIVERS
10
30
20
4
30
1.5
11
61.5
21
23
31
3
0
TEXT
8
RECEIVER_LABELS
1
310
10
30
20
4
30
1.5
11
30
21
4
31
1.5
40
0.3
72
1
73
2
0
LINE
8
RECEIVERS
10
30
20
6
30
1.5
11
61.5
21
23
31
3
0
TEXT
8
RECEIVER_LABELS
1
311
10
30
20
6
30
1.5
11
30
21
6
31
1.5
40
0.3
72
1
73
2
0
LINE
8
RECEIVERS
10
30
20
8
30
1.5
11
61.5
21
23
31
3
0
TEXT
8
RECEIVER_LABELS
1
312
10
30
20
8
30
1.5
11
30
21
8
31
1.5
40
0.3
72
1
73
2
0
LINE
8
RECEIVERS
10
30
20
10
30
1.5
11
61.5
21
23
31
3
0
TEXT
8
RECEIVER_LABELS
1
313
10
30
20
10
30
1.5
11
30
21
10
31
1.5
40
0.3
72
1
73
2
0
LINE
8
RECEIVERS
10
30
20
12
30
1.5
11
61.5
21
23
31
3
0
TEXT
8
RECEIVER_LABELS
1
314
10
30
20
12
30
1.5
11
30
21
12
31
1.5
40
0.3
72
1
73
2
0
LINE
8
RECEIVERS
10
30
20
14
30
1.5
11
61.5
21
23
31
3
0
TEXT
8
RECEIVER_LABELS
1
315
10
30
20
14
30
1.5
11
30
21
14
31
1.5
40
0.3
72
1
73
2
0
LINE
8
RECEIVERS
10
30
20
16
30
1.5
11
61.5
21
23
31
3
0
TEXT
8
RECEIVER_LABELS
1
316
10
30
20
16
30
1.5
11
30
21
16
31
1.5
40
0.3
72
1
73
2
0
LINE
8
RECEIVERS
10
30
20
18
30
1.5
11
61.5
21
23
31
3
0
TEXT
8
RECEIVER_LABELS
1
317
10
30
20
18
30
1.5
11
30
21
18
31
1.5
40
0.3
72
1
73
2
0
LINE
8
RECEIVERS
10
30
20
20
30
1.5
11
61.5
21
23
31
3
0
TEXT
8
RECEIVER_LABELS
1
318
10
30
20
20
30
1.5
11
30
21
20
31
1.5
40
0.3
72
1
73
2
0
LINE
8
RECEIVERS
10
30
20
22
30
1.5
11
61.5
21
23
31
3
0
TEXT
8
RECEIVER_LABELS
1
319
10
30
20
22
30
1.5
11
30
21
22
31
1.5
40
0.3
72
1
73
2
0
LINE
8
RECEIVERS
10
30
20
24
30
1.5
11
61.5
21
23
31
3
0
TEXT
8
RECEIVER_LABELS
1
320
10
30
20
24
30
1.5
11
30
21
24
31
1.5
40
0.3
72
1
73
2
0
LINE
8
RECEIVERS
10
30
20
26
30
1.5
11
61.5
21
23
31
3
0
TEXT
8
RECEIVER_LABELS
1
321
10
30
20
26
30
1.5
11
30
21
26
31
1.5
40
0.3
72
1
73
2
0
LINE
8
RECEIVERS
10
30
20
28
30
1.5
11
61.5
21
23
31
3
0
TEXT
8
RECEIVER_LABELS
1
322
10
30
20
28
30
1.5
11
30
21
28
31
1.5
40
0.3
72
1
73
2
0
LINE
8
RECEIVERS
10
30
20
30
30
1.5
11
61.5
21
23
31
3
0
TEXT
8
RECEIVER_LABELS
1
323
10
30
20
30
30
1.5
11
30
21
30
31
1.5
40
0.3
72
1
73
2
0
LINE
8
RECEIVERS
10
30
20
32
30
1.5
11
61.5
21
23
31
3
0
TEXT
8
RECEIVER_LABELS
1
324
10
30
20
32
30
1.5
11
30
21
32
31
1.5
40
0.3
72
1
73
2
0
LINE
8
RECEIVERS
10
30
20
34
30
1.5
11
61.5
21
23
31
3
0
TEXT
8
RECEIVER_LABELS
1
325
10
30
20
34
30
1.5
11
30
21
34
31
1.5
40
0.3
72
1
73
2
0
LINE
8
RECEIVERS
10
30
20
36
30
1.5
11
61.5
21
23
31
3
0
TEXT
8
RECEIVER_LABELS
1
326
10
30
20
36
30
1.5
11
30
21
36
31
1.5
40
0.3
72
1
73
2
0
LINE
8
RECEIVERS
10
30
20
38
30
1.5
11
61.5
21
23
31
3
0
TEXT
8
RECEIVER_LABELS
1
327
10
30
20
38
30
1.5
11
30
21
38
31
1.5
40
0.3
72
1
73
2
0
LINE
8
RECEIVERS
10
30
20
40
30
1.5
11
61.5
21
23
31
3
0
TEXT
8
RECEIVER_LABELS
1
328
10
30
20
40
30
1.5
11
30
21
40
31
1.5
40
0.3
72
1
73
2
0
LINE
8
RECEIVERS
10
30
20
42
30
1.5
11
61.5
21
23
31
3
0
TEXT
8
RECEIVER_LABELS
1
329
10
30
20
42
30
1.5
11
30
21
42
31
1.5
40
0.3
72
1
73
2
0
LINE
8
RECEIVERS
10
30
20
44
30
1.5
11
61.5
21
23
31
3
0
TEXT
8
RECEIVER_LABELS
1
330
10
30
20
44
30
1.5
11
30
21
44
31
1.5
40
0.3
72
1
73
2
0
LINE
8
RECEIVERS
10
32
20
2
30
1.5
11
61.5
21
23
31
3
0
TEXT
8
RECEIVER_LABELS
1
331
10
32
20
2
30
1.5
11
32
21
2
31
1.5
40
0.3
72
1
73
2
0
LINE
8
RECEIVERS
10
32
20
4
30
1.5
11
61.5
21
23
31
3
0
TEXT
8
RECEIVER_LABELS
1
332
10
32
20
4
30
1.5
11
32
21
4
31
1.5
40
0.3
72
1
73
2
0
LINE
8
RECEIVERS
10
32
20
6
30
1.5
11
61.5
21
23
31
3
0
TEXT
8
RECEIVER_LABELS
1
333
10
32
20
6
30
1.5
11
32
21
6
31
1.5
40
0.3
72
1
73
2
0
LINE
8
RECEIVERS
10
32
20
8
30
1.5
11
61.5
21
23
31
3
0
TEXT
8
RECEIVER_LABELS
1
334
10
32
20
8
30
1.5
11
32
21
8
31
1.5
40
0.3
72
1
73
2
0
LINE
8
RECEIVERS
10
32
20
10
30
1.5
11
61.5
21
23
31
3
0
TEXT
8
RECEIVER_LABELS
1
335
10
32
20
10
30
1.5
11
32
21
10
31
1.5
40
0.3
72
1
73
2
0
LINE
8
RECEIVERS
10
32
20
12
30
1.5
11
61.5
21
23
31
3
0
TEXT
8
RECEIVER_LABELS
1
336
10
32
20
12
30
1.5
11
32
21
12
31
1.5
40
0.3
72
1
73
2
0
LINE
8
RECEIVERS
10
32
20
14
30
1.5
11
61.5
21
23
31
3
0
TEXT
8
RECEIVER_LABELS
1
337
10
32
20
14
30
1.5
11
32
21
14
31
1.5
40
0.3
72
1
73
2
0
LINE
8
RECEIVERS
10
32
20
16
30
1.5
11
61.5
21
23
31
3
0
TEXT
8
RECEIVER_LABELS
1
338
10
32
20
16
30
1.5
11
32
21
16
31
1.5
40
0.3
72
1
73
2
0
LINE
8
RECEIVERS
10
32
20
18
30
1.5
11
61.5
21
23
31
3
0
TEXT
8
RECEIVER_LABELS
1
339
10
32
20
18
30
1.5
11
32
21
18
31
1.5
40
0.3
72
1
73
2
0
LINE
8
RECEIVERS
10
32
20
20
30
1.5
11
61.5
21
23
31
3
0
TEXT
8
RECEIVER_LABELS
1
340
10
32
20
20
30
1.5
11
32
21
20
31
1.5
40
0.3
72
1
73
2
0
LINE
8
RECEIVERS
10
32
20
22
30
1.5
11
61.5
21
23
31
3
0
TEXT
8
RECEIVER_LABELS
1
341
10
32
20
22
30
1.5
11
32
21
22
31
1.5
40
0.3
72
1
73
2
0
LINE
8
RECEIVERS
10
32
20
24
30
1.5
11
61.5
21
23
31
3
0
TEXT
8
RECEIVER_LABELS
1
342
10
32
20
24
30
1.5
11
32
21
24
31
1.5
40
0.3
72
1
73
2
0
LINE
8
RECEIVERS
10
32
20
26
30
1.5
11
61.5
21
23
31
3
0
TEXT
8
RECEIVER_LABELS
1
343
10
32
20
26
30
1.5
11
32
21
26
31
1.5
40
0.3
72
1
73
2
0
LINE
8
RECEIVERS
10
32
20
28
30
1.5
11
61.5
21
23
31
3
0
TEXT
8
RECEIVER_LABELS
1
344
10
32
20
28
30
1.5
11
32
21
28
31
1.5
40
0.3
72
1
73
2
0
LINE
8
RECEIVERS
10
32
20
30
30
1.5
11
61.5
21
23
31
3
0
TEXT
8
RECEIVER_LABELS
1
345
10
32
20
30
30
1.5
11
32
21
30
31
1.5
40
0.3
72
1
73
2
0
LINE
8
RECEIVERS
10
32
20
32
30
1.5
11
61.5
21
23
31
3
0
TEXT
8
RECEIVER_LABELS
1
346
10
32
20
32
30
1.5
11
32
21
32
31
1.5
40
0.3
72
1
73
2
0
LINE
8
RECEIVERS
10
32
20
34
30
1.5
11
61.5
21
23
31
3
0
TEXT
8
RECEIVER_LABELS
1
347
10
32
20
34
30
1.5
11
32
21
34
31
1.5
40
0.3
72
1
73
2
0
LINE
8
RECEIVERS
10
32
20
36
30
1.5
11
61.5
21
23
31
3
0
TEXT
8
RECEIVER_LABELS
1
348
10
32
20
36
30
1.5
11
32
21
36
31
1.5
40
0.3
72
1
73
2
0
LINE
8
RECEIVERS
10
32
20
38
30
1.5
11
61.5
21
23
31
3
0
TEXT
8
RECEIVER_LABELS
1
349
10
32
20
38
30
1.5
11
32
21
38
31
1.5
40
0.3
72
1
73
2
0
LINE
8
RECEIVERS
10
32
20
40
30
1.5
11
61.5
21
23
31
3
0
TEXT
8
RECEIVER_LABELS
1
350
10
32
20
40
30
1.5
11
32
21
40
31
1.5
40
0.3
72
1
73
2
0
LINE
8
RECEIVERS
10
32
20
42
30
1.5
11
61.5
21
23
31
3
0
TEXT
8
RECEIVER_LABELS
1
351
10
32
20
42
30
1.5
11
32
21
42
31
1.5
40
0.3
72
1
73
2
0
LINE
8
RECEIVERS
10
32
20
44
30
1.5
11
61.5
21
23
31
3
0
TEXT
8
RECEIVER_LABELS
1
352
10
32
20
44
30
1.5
11
32
21
44
31
1.5
40
0.3
72
1
73
2
0
LINE
8
RECEIVERS
10
34
20
2
30
1.5
11
61.5
21
23
31
3
0
TEXT
8
RECEIVER_LABELS
1
353
10
34
20
2
30
1.5
11
34
21
2
31
1.5
40
0.3
72
1
73
2
0
LINE
8
RECEIVERS
10
34
20
4
30
1.5
11
61.5
21
23
31
3
0
TEXT
8
RECEIVER_LABELS
1
354
10
34
20
4
30
1.5
11
34
21
4
31
1.5
40
0.3
72
1
73
2
0
LINE
8
RECEIVERS
10
34
20
6
30
1.5
11
61.5
21
23
31
3
0
TEXT
8
RECEIVER_LABELS
1
355
10
34
20
6
30
1.5
11
34
21
6
31
1.5
40
0.3
72
1
73
2
0
LINE
8
RECEIVERS
10
34
20
8
30
1.5
11
61.5
21
23
31
3
0
TEXT
8
RECEIVER_LABELS
1
356
10
34
20
8
30
1.5
11
34
21
8
31
1.5
40
0.3
72
1
73
2
0
LINE
8
RECEIVERS
10
34
20
10
30
1.5
11
61.5
21
23
31
3
0
TEXT
8
RECEIVER_LABELS
1
357
10
34
20
10
30
1.5
11
34
21
10
31
1.5
40
0.3
72
1
73
2
0
LINE
8
RECEIVERS
10
34
20
12
30
1.5
11
61.5
21
23
31
3
0
TEXT
8
RECEIVER_LABELS
1
358
10
34
20
12
30
1.5
11
34
21
12
31
1.5
40
0.3
72
1
73
2
0
LINE
8
RECEIVERS
10
34
20
14
30
1.5
11
61.5
21
23
31
3
0
TEXT
8
RECEIVER_LABELS
1
359
10
34
20
14
30
1.5
11
34
21
14
31
1.5
40
0.3
72
1
73
2
0
LINE
8
RECEIVERS
10
34
20
16
30
1.5
11
61.5
21
23
31
3
0
TEXT
8
RECEIVER_LABELS
1
360
10
34
20
16
30
1.5
11
34
21
16
31
1.5
40
0.3
72
1
73
2
0
LINE
8
RECEIVERS
10
34
20
18
30
1.5
11
61.5
21
23
31
3
0
TEXT
8
RECEIVER_LABELS
1
361
10
34
20
18
30
1.5
11
34
21
18
31
1.5
40
0.3
72
1
73
2
0
LINE
8
RECEIVERS
10
34
20
20
30
1.5
11
61.5
21
23
31
3
0
TEXT
8
RECEIVER_LABELS
1
362
10
34
20
20
30
1.5
11
34
21
20
31
1.5
40
0.3
72
1
73
2
0
LINE
8
RECEIVERS
10
34
20
22
30
1.5
11
61.5
21
23
31
3
0
TEXT
8
RECEIVER_LABELS
1
363
10
34
20
22
30
1.5
11
34
21
22
31
1.5
40
0.3
72
1
73
2
0
LINE
8
RECEIVERS
10
34
20
24
30
1.5
11
61.5
21
23
31
3
0
TEXT
8
RECEIVER_LABELS
1
364
10
34
20
24
30
1.5
11
34
21
24
31
1.5
40
0.3
72
1
73
2
0
LINE
8
RECEIVERS
10
34
20
26
30
1.5
11
61.5
21
23
31
3
0
TEXT
8
RECEIVER_LABELS
1
365
10
34
20
26
30
1.5
11
34
21
26
31
1.5
40
0.3
72
1
73
2
0
LINE
8
RECEIVERS
10
34
20
28
30
1.5
11
61.5
21
23
31
3
0
TEXT
8
RECEIVER_LABELS
1
366
10
34
20
28
30
1.5
11
34
21
28
31
1.5
40
0.3
72
1
73
2
0
LINE
8
RECEIVERS
10
34
20
30
30
1.5
11
61.5
21
23
31
3
0
TEXT
8
RECEIVER_LABELS
1
367
10
34
20
30
30
1.5
11
34
21
30
31
1.5
40
0.3
72
1
73
2
0
LINE
8
RECEIVERS
10
34
20
32
30
1.5
11
61.5
21
23
31
3
0
TEXT
8
RECEIVER_LABELS
1
368
10
34
20
32
30
1.5
11
34
21
32
31
1.5
40
0.3
72
1
73
2
0
LINE
8
RECEIVERS
10
34
20
34
30
1.5
11
61.5
21
23
31
3
0
TEXT
8
RECEIVER_LABELS
1
369
10
34
20
34
30
1.5
11
34
21
34
31
1.5
40
0.3
72
1
73
2
0
LINE
8
RECEIVERS
10
34
20
36
30
1.5
11
61.5
21
23
31
3
0
TEXT
8
RECEIVER_LABELS
1
370
10
34
20
36
30
1.5
11
34
21
36
31
1.5
40
0.3
72
1
73
2
0
LINE
8
RECEIVERS
10
34
20
38
30
1.5
11
61.5
21
23
31
3
0
TEXT
8
RECEIVER_LABELS
1
371
10
34
20
38
30
1.5
11
34
21
38
31
1.5
40
0.3
72
1
73
2
0
LINE
8
RECEIVERS
10
34
20
40
30
1.5
11
61.5
21
23
31
3
0
TEXT
8
RECEIVER_LABELS
1
372
10
34
20
40
30
1.5
11
34
21
40
31
1.5
40
0.3
72
1
73
2
0
LINE
8
RECEIVERS
10
34
20
42
30
1.5
11
61.5
21
23
31
3
0
TEXT
8
RECEIVER_LABELS
1
373
10
34
20
42
30
1.5
11
34
21
42
31
1.5
40
0.3
72
1
73
2
0
LINE
8
RECEIVERS
10
34
20
44
30
1.5
11
61.5
21
23
31
3
0
TEXT
8
RECEIVER_LABELS
1
374
10
34
20
44
30
1.5
11
34
21
44
31
1.5
40
0.3
72
1
73
2
0
LINE
8
RECEIVERS
10
36
20
2
30
1.5
11
61.5
21
23
31
3
0
TEXT
8
RECEIVER_LABELS
1
375
10
36
20
2
30
1.5
11
36
21
2
31
1.5
40
0.3
72
1
73
2
0
LINE
8
RECEIVERS
10
36
20
4
30
1.5
11
61.5
21
23
31
3
0
TEXT
8
RECEIVER_LABELS
1
376
10
36
20
4
30
1.5
11
36
21
4
31
1.5
40
0.3
72
1
73
2
0
LINE
8
RECEIVERS
10
36
20
6
30
1.5
11
61.5
21
23
31
3
0
TEXT
8
RECEIVER_LABELS
1
377
10
36
20
6
30
1.5
11
36
21
6
31
1.5
40
0.3
72
1
73
2
0
LINE
8
RECEIVERS
10
36
20
8
30
1.5
11
61.5
21
23
31
3
0
TEXT
8
RECEIVER_LABELS
1
378
10
36
20
8
30
1.5
11
36
21
8
31
1.5
40
0.3
72
1
73
2
0
LINE
8
RECEIVERS
10
36
20
10
30
1.5
11
61.5
21
23
31
3
0
TEXT
8
RECEIVER_LABELS
1
379
10
36
20
10
30
1.5
11
36
21
10
31
1.5
40
0.3
72
1
73
2
0
LINE
8
RECEIVERS
10
36
20
12
30
1.5
11
61.5
21
23
31
3
0
TEXT
8
RECEIVER_LABELS
1
380
10
36
20
12
30
1.5
11
36
21
12
31
1.5
40
0.3
72
1
73
2
0
LINE
8
RECEIVERS
10
36
20
14
30
1.5
11
61.5
21
23
31
3
0
TEXT
8
RECEIVER_LABELS
1
381
10
36
20
14
30
1.5
11
36
21
14
31
1.5
40
0.3
72
1
73
2
0
LINE
8
RECEIVERS
10
36
20
16
30
1.5
11
61.5
21
23
31
3
0
TEXT
8
RECEIVER_LABELS
1
382
10
36
20
16
30
1.5
11
36
21
16
31
1.5
40
0.3
72
1
73
2
0
LINE
8
RECEIVERS
10
36
20
18
30
1.5
11
61.5
21
23
31
3
0
TEXT
8
RECEIVER_LABELS
1
383
10
36
20
18
30
1.5
11
36
21
18
31
1.5
40
0.3
72
1
73
2
0
LINE
8
RECEIVERS
10
36
20
20
30
1.5
11
61.5
21
23
31
3
0
TEXT
8
RECEIVER_LABELS
1
384
10
36
20
20
30
1.5
11
36
21
20
31
1.5
40
0.3
72
1
73
2
0
LINE
8
RECEIVERS
10
36
20
22
30
1.5
11
61.5
21
23
31
3
0
TEXT
8
RECEIVER_LABELS
1
385
10
36
20
22
30
1.5
11
36
21
22
31
1.5
40
0.3
72
1
73
2
0
LINE
8
RECEIVERS
10
36
20
24
30
1.5
11
61.5
21
23
31
3
0
TEXT
8
RECEIVER_LABELS
1
386
10
36
20
24
30
1.5
11
36
21
24
31
1.5
40
0.3
72
1
73
2
0
LINE
8
RECEIVERS
10
36
20
26
30
1.5
11
61.5
21
23
31
3
0
TEXT
8
RECEIVER_LABELS
1
387
10
36
20
26
30
1.5
11
36
21
26
31
1.5
40
0.3
72
1
73
2
0
LINE
8
RECEIVERS
10
36
20
28
30
1.5
11
61.5
21
23
31
3
0
TEXT
8
RECEIVER_LABELS
1
388
10
36
20
28
30
1.5
11
36
21
28
31
1.5
40
0.3
72
1
73
2
0
LINE
8
RECEIVERS
10
36
20
30
30
1.5
11
61.5
21
23
31
3
0
TEXT
8
RECEIVER_LABELS
1
389
10
36
20
30
30
1.5
11
36
21
30
31
1.5
40
0.3
72
1
73
2
0
LINE
8
RECEIVERS
10
36
20
32
30
1.5
11
61.5
21
23
31
3
0
TEXT
8
RECEIVER_LABELS
1
390
10
36
20
32
30
1.5
11
36
21
32
31
1.5
40
0.3
72
1
73
2
0
LINE
8
RECEIVERS
10
36
20
34
30
1.5
11
61.5
21
23
31
3
0
TEXT
8
RECEIVER_LABELS
1
391
10
36
20
34
30
1.5
11
36
21
34
31
1.5
40
0.3
72
1
73
2
0
LINE
8
RECEIVERS
10
36
20
36
30
1.5
11
61.5
21
23
31
3
0
TEXT
8
RECEIVER_LABELS
1
392
10
36
20
36
30
1.5
11
36
21
36
31
1.5
40
0.3
72
1
73
2
0
LINE
8
RECEIVERS
10
36
20
38
30
1.5
11
61.5
21
23
31
3
0
TEXT
8
RECEIVER_LABELS
1
393
10
36
20
38
30
1.5
11
36
21
38
31
1.5
40
0.3
72
1
73
2
0
LINE
8
RECEIVERS
10
36
20
40
30
1.5
11
61.5
21
23
31
3
0
TEXT
8
RECEIVER_LABELS
1
394
10
36
20
40
30
1.5
11
36
21
40
31
1.5
40
0.3
72
1
73
2
0
LINE
8
RECEIVERS
10
36
20
42
30
1.5
11
61.5
21
23
31
3
0
TEXT
8
RECEIVER_LABELS
1
395
10
36
20
42
30
1.5
11
36
21
42
31
1.5
40
0.3
72
1
73
2
0
LINE
8
RECEIVERS
10
36
20
44
30
1.5
11
61.5
21
23
31
3
0
TEXT
8
RECEIVER_LABELS
1
396
10
36
20
44
30
1.5
11
36
21
44
31
1.5
40
0.3
72
1
73
2
0
LINE
8
RECEIVERS
10
38
20
2
30
1.5
11
61.5
21
23
31
3
0
TEXT
8
RECEIVER_LABELS
1
397
10
38
20
2
30
1.5
11
38
21
2
31
1.5
40
0.3
72
1
73
2
0
LINE
8
RECEIVERS
10
38
20
4
30
1.5
11
61.5
21
23
31
3
0
TEXT
8
RECEIVER_LABELS
1
398
10
38
20
4
30
1.5
11
38
21
4
31
1.5
40
0.3
72
1
73
2
0
LINE
8
RECEIVERS
10
38
20
6
30
1.5
11
61.5
21
23
31
3
0
TEXT
8
RECEIVER_LABELS
1
399
10
38
20
6
30
1.5
11
38
21
6
31
1.5
40
0.3
72
1
73
2
0
LINE
8
RECEIVERS
10
38
20
8
30
1.5
11
61.5
21
23
31
3
0
TEXT
8
RECEIVER_LABELS
1
400
10
38
20
8
30
1.5
11
38
21
8
31
1.5
40
0.3
72
1
73
2
0
LINE
8
RECEIVERS
10
38
20
10
30
1.5
11
61.5
21
23
31
3
0
TEXT
8
RECEIVER_LABELS
1
401
10
38
20
10
30
1.5
11
38
21
10
31
1.5
40
0.3
72
1
73
2
0
LINE
8
RECEIVERS
10
38
20
12
30
1.5
11
61.5
21
23
31
3
0
TEXT
8
RECEIVER_LABELS
1
402
10
38
20
12
30
1.5
11
38
21
12
31
1.5
40
0.3
72
1
73
2
0
LINE
8
RECEIVERS
10
38
20
14
30
1.5
11
61.5
21
23
31
3
0
TEXT
8
RECEIVER_LABELS
1
403
10
38
20
14
30
1.5
11
38
21
14
31
1.5
40
0.3
72
1
73
2
0
LINE
8
RECEIVERS
10
38
20
16
30
1.5
11
61.5
21
23
31
3
0
TEXT
8
RECEIVER_LABELS
1
404
10
38
20
16
30
1.5
11
38
21
16
31
1.5
40
0.3
72
1
73
2
0
LINE
8
RECEIVERS
10
38
20
18
30
1.5
11
61.5
21
23
31
3
0
TEXT
8
RECEIVER_LABELS
1
405
10
38
20
18
30
1.5
11
38
21
18
31
1.5
40
0.3
72
1
73
2
0
LINE
8
RECEIVERS
10
38
20
20
30
1.5
11
61.5
21
23
31
3
0
TEXT
8
RECEIVER_LABELS
1
406
10
38
20
20
30
1.5
11
38
21
20
31
1.5
40
0.3
72
1
73
2
0
LINE
8
RECEIVERS
10
38
20
22
30
1.5
11
61.5
21
23
31
3
0
TEXT
8
RECEIVER_LABELS
1
407
10
38
20
22
30
1.5
11
38
21
22
31
1.5
40
0.3
72
1
73
2
0
LINE
8
RECEIVERS
10
38
20
24
30
1.5
11
61.5
21
23
31
3
0
TEXT
8
RECEIVER_LABELS
1
408
10
38
20
24
30
1.5
11
38
21
24
31
1.5
40
0.3
72
1
73
2
0
LINE
8
RECEIVERS
10
38
20
26
30
1.5
11
61.5
21
23
31
3
0
TEXT
8
RECEIVER_LABELS
1
409
10
38
20
26
30
1.5
11
38
21
26
31
1.5
40
0.3
72
1
73
2
0
LINE
8
RECEIVERS
10
38
20
28
30
1.5
11
61.5
21
23
31
3
0
TEXT
8
RECEIVER_LABELS
1
410
10
38
20
28
30
1.5
11
38
21
28
31
1.5
40
0.3
72
1
73
2
0
LINE
8
RECEIVERS
10
38
20
30
30
1.5
11
61.5
21
23
31
3
0
TEXT
8
RECEIVER_LABELS
1
411
10
38
20
30
30
1.5
11
38
21
30
31
1.5
40
0.3
72
1
73
2
0
LINE
8
RECEIVERS
10
38
20
32
30
1.5
11
61.5
21
23
31
3
0
TEXT
8
RECEIVER_LABELS
1
412
10
38
20
32
30
1.5
11
38
21
32
31
1.5
40
0.3
72
1
73
2
0
LINE
8
RECEIVERS
10
38
20
34
30
1.5
11
61.5
21
23
31
3
0
TEXT
8
RECEIVER_LABELS
1
413
10
38
20
34
30
1.5
11
38
21
34
31
1.5
40
0.3
72
1
73
2
0
LINE
8
RECEIVERS
10
38
20
36
30
1.5
11
61.5
21
23
31
3
0
TEXT
8
RECEIVER_LABELS
1
414
10
38
20
36
30
1.5
11
38
21
36
31
1.5
40
0.3
72
1
73
2
0
LINE
8
RECEIVERS
10
38
20
38
30
1.5
11
61.5
21
23
31
3
0
TEXT
8
RECEIVER_LABELS
1
415
10
38
20
38
30
1.5
11
38
21
38
31
1.5
40
0.3
72
1
73
2
0
LINE
8
RECEIVERS
10
38
20
40
30
1.5
11
61.5
21
23
31
3
0
TEXT
8
RECEIVER_LABELS
1
416
10
38
20
40
30
1.5
11
38
21
40
31
1.5
40
0.3
72
1
73
2
0
LINE
8
RECEIVERS
10
38
20
42
30
1.5
11
61.5
21
23
31
3
0
TEXT
8
RECEIVER_LABELS
1
417
10
38
20
42
30
1.5
11
38
21
42
31
1.5
40
0.3
72
1
73
2
0
LINE
8
RECEIVERS
10
38
20
44
30
1.5
11
61.5
21
23
31
3
0
TEXT
8
RECEIVER_LABELS
1
418
10
38
20
44
30
1.5
11
38
21
44
31
1.5
40
0.3
72
1
73
2
0
LINE
8
RECEIVERS
10
40
20
2
30
1.5
11
61.5
21
23
31
3
0
TEXT
8
RECEIVER_LABELS
1
419
10
40
20
2
30
1.5
11
40
21
2
31
1.5
40
0.3
72
1
73
2
0
LINE
8
RECEIVERS
10
40
20
4
30
1.5
11
61.5
21
23
31
3
0
TEXT
8
RECEIVER_LABELS
1
420
10
40
20
4
30
1.5
11
40
21
4
31
1.5
40
0.3
72
1
73
2
0
LINE
8
RECEIVERS
10
40
20
6
30
1.5
11
61.5
21
23
31
3
0
TEXT
8
RECEIVER_LABELS
1
421
10
40
20
6
30
1.5
11
40
21
6
31
1.5
40
0.3
72
1
73
2
0
LINE
8
RECEIVERS
10
40
20
8
30
1.5
11
61.5
21
23
31
3
0
TEXT
8
RECEIVER_LABELS
1
422
10
40
20
8
30
1.5
11
40
21
8
31
1.5
40
0.3
72
1
73
2
0
LINE
8
RECEIVERS
10
40
20
10
30
1.5
11
61.5
21
23
31
3
0
TEXT
8
RECEIVER_LABELS
1
423
10
40
20
10
30
1.5
11
40
21
10
31
1.5
40
0.3
72
1
73
2
0
LINE
8
RECEIVERS
10
40
20
12
30
1.5
11
61.5
21
23
31
3
0
TEXT
8
RECEIVER_LABELS
1
424
10
40
20
12
30
1.5
11
40
21
12
31
1.5
40
0.3
72
1
73
2
0
LINE
8
RECEIVERS
10
40
20
14
30
1.5
11
61.5
21
23
31
3
0
TEXT
8
RECEIVER_LABELS
1
425
10
40
20
14
30
1.5
11
40
21
14
31
1.5
40
0.3
72
1
73
2
0
LINE
8
RECEIVERS
10
40
20
16
30
1.5
11
61.5
21
23
31
3
0
TEXT
8
RECEIVER_LABELS
1
426
10
40
20
16
30
1.5
11
40
21
16
31
1.5
40
0.3
72
1
73
2
0
LINE
8
RECEIVERS
10
40
20
18
30
1.5
11
61.5
21
23
31
3
0
TEXT
8
RECEIVER_LABELS
1
427
10
40
20
18
30
1.5
11
40
21
18
31
1.5
40
0.3
72
1
73
2
0
LINE
8
RECEIVERS
10
40
20
20
30
1.5
11
61.5
21
23
31
3
0
TEXT
8
RECEIVER_LABELS
1
428
10
40
20
20
30
1.5
11
40
21
20
31
1.5
40
0.3
72
1
73
2
0
LINE
8
RECEIVERS
10
40
20
22
30
1.5
11
61.5
21
23
31
3
0
TEXT
8
RECEIVER_LABELS
1
429
10
40
20
22
30
1.5
11
40
21
22
31
1.5
40
0.3
72
1
73
2
0
LINE
8
RECEIVERS
10
40
20
24
30
1.5
11
61.5
21
23
31
3
0
TEXT
8
RECEIVER_LABELS
1
430
10
40
20
24
30
1.5
11
40
21
24
31
1.5
40
0.3
72
1
73
2
0
LINE
8
RECEIVERS
10
40
20
26
30
1.5
11
61.5
21
23
31
3
0
TEXT
8
RECEIVER_LABELS
1
431
10
40
20
26
30
1.5
11
40
21
26
31
1.5
40
0.3
72
1
73
2
0
LINE
8
RECEIVERS
10
40
20
28
30
1.5
11
61.5
21
23
31
3
0
TEXT
8
RECEIVER_LABELS
1
432
10
40
20
28
30
1.5
11
40
21
28
31
1.5
40
0.3
72
1
73
2
0
LINE
8
RECEIVERS
10
40
20
30
30
1.5
11
61.5
21
23
31
3
0
TEXT
8
RECEIVER_LABELS
1
433
10
40
20
30
30
1.5
11
40
21
30
31
1.5
40
0.3
72
1
73
2
0
LINE
8
RECEIVERS
10
40
20
32
30
1.5
11
61.5
21
23
31
3
0
TEXT
8
RECEIVER_LABELS
1
434
10
40
20
32
30
1.5
11
40
21
32
31
1.5
40
0.3
72
1
73
2
0
LINE
8
RECEIVERS
10
40
20
34
30
1.5
11
61.5
21
23
31
3
0
TEXT
8
RECEIVER_LABELS
1
435
10
40
20
34
30
1.5
11
40
21
34
31
1.5
40
0.3
72
1
73
2
0
LINE
8
RECEIVERS
10
40
20
36
30
1.5
11
61.5
21
23
31
3
0
TEXT
8
RECEIVER_LABELS
1
436
10
40
20
36
30
1.5
11
40
21
36
31
1.5
40
0.3
72
1
73
2
0
LINE
8
RECEIVERS
10
40
20
38
30
1.5
11
61.5
21
23
31
3
0
TEXT
8
RECEIVER_LABELS
1
437
10
40
20
38
30
1.5
11
40
21
38
31
1.5
40
0.3
72
1
73
2
0
LINE
8
RECEIVERS
10
40
20
40
30
1.5
11
61.5
21
23
31
3
0
TEXT
8
RECEIVER_LABELS
1
438
10
40
20
40
30
1.5
11
40
21
40
31
1.5
40
0.3
72
1
73
2
0
LINE
8
RECEIVERS
10
40
20
42
30
1.5
11
61.5
21
23
31
3
0
TEXT
8
RECEIVER_LABELS
1
439
10
40
20
42
30
1.5
11
40
21
42
31
1.5
40
0.3
72
1
73
2
0
LINE
8
RECEIVERS
10
40
20
44
30
1.5
11
61.5
21
23
31
3
0
TEXT
8
RECEIVER_LABELS
1
440
10
40
20
44
30
1.5
11
40
21
44
31
1.5
40
0.3
72
1
73
2
0
LINE
8
RECEIVERS
10
42
20
2
30
1.5
11
61.5
21
23
31
3
0
TEXT
8
RECEIVER_LABELS
1
441
10
42
20
2
30
1.5
11
42
21
2
31
1.5
40
0.3
72
1
73
2
0
LINE
8
RECEIVERS
10
42
20
4
30
1.5
11
61.5
21
23
31
3
0
TEXT
8
RECEIVER_LABELS
1
442
10
42
20
4
30
1.5
11
42
21
4
31
1.5
40
0.3
72
1
73
2
0
LINE
8
RECEIVERS
10
42
20
6
30
1.5
11
61.5
21
23
31
3
0
TEXT
8
RECEIVER_LABELS
1
443
10
42
20
6
30
1.5
11
42
21
6
31
1.5
40
0.3
72
1
73
2
0
LINE
8
RECEIVERS
10
42
20
8
30
1.5
11
61.5
21
23
31
3
0
TEXT
8
RECEIVER_LABELS
1
444
10
42
20
8
30
1.5
11
42
21
8
31
1.5
40
0.3
72
1
73
2
0
LINE
8
RECEIVERS
10
42
20
10
30
1.5
11
61.5
21
23
31
3
0
TEXT
8
RECEIVER_LABELS
1
445
10
42
20
10
30
1.5
11
42
21
10
31
1.5
40
0.3
72
1
73
2
0
LINE
8
RECEIVERS
10
42
20
12
30
1.5
11
61.5
21
23
31
3
0
TEXT
8
RECEIVER_LABELS
1
446
10
42
20
12
30
1.5
11
42
21
12
31
1.5
40
0.3
72
1
73
2
0
LINE
8
RECEIVERS
10
42
20
14
30
1.5
11
61.5
21
23
31
3
0
TEXT
8
RECEIVER_LABELS
1
447
10
42
20
14
30
1.5
11
42
21
14
31
1.5
40
0.3
72
1
73
2
0
LINE
8
RECEIVERS
10
42
20
16
30
1.5
11
61.5
21
23
31
3
0
TEXT
8
RECEIVER_LABELS
1
448
10
42
20
16
30
1.5
11
42
21
16
31
1.5
40
0.3
72
1
73
2
0
LINE
8
RECEIVERS
10
42
20
18
30
1.5
11
61.5
21
23
31
3
0
TEXT
8
RECEIVER_LABELS
1
449
10
42
20
18
30
1.5
11
42
21
18
31
1.5
40
0.3
72
1
73
2
0
LINE
8
RECEIVERS
10
42
20
20
30
1.5
11
61.5
21
23
31
3
0
TEXT
8
RECEIVER_LABELS
1
450
10
42
20
20
30
1.5
11
42
21
20
31
1.5
40
0.3
72
1
73
2
0
LINE
8
RECEIVERS
10
42
20
22
30
1.5
11
61.5
21
23
31
3
0
TEXT
8
RECEIVER_LABELS
1
451
10
42
20
22
30
1.5
11
42
21
22
31
1.5
40
0.3
72
1
73
2
0
LINE
8
RECEIVERS
10
42
20
24
30
1.5
11
61.5
21
23
31
3
0
TEXT
8
RECEIVER_LABELS
1
452
10
42
20
24
30
1.5
11
42
21
24
31
1.5
40
0.3
72
1
73
2
0
LINE
8
RECEIVERS
10
42
20
26
30
1.5
11
61.5
21
23
31
3
0
TEXT
8
RECEIVER_LABELS
1
453
10
42
20
26
30
1.5
11
42
21
26
31
1.5
40
0.3
72
1
73
2
0
LINE
8
RECEIVERS
10
42
20
28
30
1.5
11
61.5
21
23
31
3
0
TEXT
8
RECEIVER_LABELS
1
454
10
42
20
28
30
1.5
11
42
21
28
31
1.5
40
0.3
72
1
73
2
0
LINE
8
RECEIVERS
10
42
20
30
30
1.5
11
61.5
21
23
31
3
0
TEXT
8
RECEIVER_LABELS
1
455
10
42
20
30
30
1.5
11
42
21
30
31
1.5
40
0.3
72
1
73
2
0
LINE
8
RECEIVERS
10
42
20
32
30
1.5
11
61.5
21
23
31
3
0
TEXT
8
RECEIVER_LABELS
1
456
10
42
20
32
30
1.5
11
42
21
32
31
1.5
40
0.3
72
1
73
2
0
LINE
8
RECEIVERS
10
42
20
34
30
1.5
11
61.5
21
23
31
3
0
TEXT
8
RECEIVER_LABELS
1
457
10
42
20
34
30
1.5
11
42
21
34
31
1.5
40
0.3
72
1
73
2
0
LINE
8
RECEIVERS
10
42
20
36
30
1.5
11
61.5
21
23
31
3
0
TEXT
8
RECEIVER_LABELS
1
458
10
42
20
36
30
1.5
11
42
21
36
31
1.5
40
0.3
72
1
73
2
0
LINE
8
RECEIVERS
10
42
20
38
30
1.5
11
61.5
21
23
31
3
0
TEXT
8
RECEIVER_LABELS
1
459
10
42
20
38
30
1.5
11
42
21
38
31
1.5
40
0.3
72
1
73
2
0
LINE
8
RECEIVERS
10
42
20
40
30
1.5
11
61.5
21
23
31
3
0
TEXT
8
RECEIVER_LABELS
1
460
10
42
20
40
30
1.5
11
42
21
40
31
1.5
40
0.3
72
1
73
2
0
LINE
8
RECEIVERS
10
42
20
42
30
1.5
11
61.5
21
23
31
3
0
TEXT
8
RECEIVER_LABELS
1
461
10
42
20
42
30
1.5
11
42
21
42
31
1.5
40
0.3
72
1
73
2
0
LINE
8
RECEIVERS
10
42
20
44
30
1.5
11
61.5
21
23
31
3
0
TEXT
8
RECEIVER_LABELS
1
462
10
42
20
44
30
1.5
11
42
21
44
31
1.5
40
0.3
72
1
73
2
0
LINE
8
RECEIVERS
10
44
20
2
30
1.5
11
61.5
21
23
31
3
0
TEXT
8
RECEIVER_LABELS
1
463
10
44
20
2
30
1.5
11
44
21
2
31
1.5
40
0.3
72
1
73
2
0
LINE
8
RECEIVERS
10
44
20
4
30
1.5
11
61.5
21
23
31
3
0
TEXT
8
RECEIVER_LABELS
1
464
10
44
20
4
30
1.5
11
44
21
4
31
1.5
40
0.3
72
1
73
2
0
LINE
8
RECEIVERS
10
44
20
6
30
1.5
11
61.5
21
23
31
3
0
TEXT
8
RECEIVER_LABELS
1
465
10
44
20
6
30
1.5
11
44
21
6
31
1.5
40
0.3
72
1
73
2
0
LINE
8
RECEIVERS
10
44
20
8
30
1.5
11
61.5
21
23
31
3
0
TEXT
8
RECEIVER_LABELS
1
466
10
44
20
8
30
1.5
11
44
21
8
31
1.5
40
0.3
72
1
73
2
0
LINE
8
RECEIVERS
10
44
20
10
30
1.5
11
61.5
21
23
31
3
0
TEXT
8
RECEIVER_LABELS
1
467
10
44
20
10
30
1.5
11
44
21
10
31
1.5
40
0.3
72
1
73
2
0
LINE
8
RECEIVERS
10
44
20
12
30
1.5
11
61.5
21
23
31
3
0
TEXT
8
RECEIVER_LABELS
1
468
10
44
20
12
30
1.5
11
44
21
12
31
1.5
40
0.3
72
1
73
2
0
LINE
8
RECEIVERS
10
44
20
14
30
1.5
11
61.5
21
23
31
3
0
TEXT
8
RECEIVER_LABELS
1
469
10
44
20
14
30
1.5
11
44
21
14
31
1.5
40
0.3
72
1
73
2
0
LINE
8
RECEIVERS
10
44
20
16
30
1.5
11
61.5
21
23
31
3
0
TEXT
8
RECEIVER_LABELS
1
470
10
44
20
16
30
1.5
11
44
21
16
31
1.5
40
0.3
72
1
73
2
0
LINE
8
RECEIVERS
10
44
20
18
30
1.5
11
61.5
21
23
31
3
0
TEXT
8
RECEIVER_LABELS
1
471
10
44
20
18
30
1.5
11
44
21
18
31
1.5
40
0.3
72
1
73
2
0
LINE
8
RECEIVERS
10
44
20
20
30
1.5
11
61.5
21
23
31
3
0
TEXT
8
RECEIVER_LABELS
1
472
10
44
20
20
30
1.5
11
44
21
20
31
1.5
40
0.3
72
1
73
2
0
LINE
8
RECEIVERS
10
44
20
22
30
1.5
11
61.5
21
23
31
3
0
TEXT
8
RECEIVER_LABELS
1
473
10
44
20
22
30
1.5
11
44
21
22
31
1.5
40
0.3
72
1
73
2
0
LINE
8
RECEIVERS
10
44
20
24
30
1.5
11
61.5
21
23
31
3
0
TEXT
8
RECEIVER_LABELS
1
474
10
44
20
24
30
1.5
11
44
21
24
31
1.5
40
0.3
72
1
73
2
0
LINE
8
RECEIVERS
10
44
20
26
30
1.5
11
61.5
21
23
31
3
0
TEXT
8
RECEIVER_LABELS
1
475
10
44
20
26
30
1.5
11
44
21
26
31
1.5
40
0.3
72
1
73
2
0
LINE
8
RECEIVERS
10
44
20
28
30
1.5
11
61.5
21
23
31
3
0
TEXT
8
RECEIVER_LABELS
1
476
10
44
20
28
30
1.5
11
44
21
28
31
1.5
40
0.3
72
1
73
2
0
LINE
8
RECEIVERS
10
44
20
30
30
1.5
11
61.5
21
23
31
3
0
TEXT
8
RECEIVER_LABELS
1
477
10
44
20
30
30
1.5
11
44
21
30
31
1.5
40
0.3
72
1
73
2
0
LINE
8
RECEIVERS
10
44
20
32
30
1.5
11
61.5
21
23
31
3
0
TEXT
8
RECEIVER_LABELS
1
478
10
44
20
32
30
1.5
11
44
21
32
31
1.5
40
0.3
72
1
73
2
0
LINE
8
RECEIVERS
10
44
20
34
30
1.5
11
61.5
21
23
31
3
0
TEXT
8
RECEIVER_LABELS
1
479
10
44
20
34
30
1.5
11
44
21
34
31
1.5
40
0.3
72
1
73
2
0
LINE
8
RECEIVERS
10
44
20
36
30
1.5
11
61.5
21
23
31
3
0
TEXT
8
RECEIVER_LABELS
1
480
10
44
20
36
30
1.5
11
44
21
36
31
1.5
40
0.3
72
1
73
2
0
LINE
8
RECEIVERS
10
44
20
38
30
1.5
11
61.5
21
23
31
3
0
TEXT
8
RECEIVER_LABELS
1
481
10
44
20
38
30
1.5
11
44
21
38
31
1.5
40
0.3
72
1
73
2
0
LINE
8
RECEIVERS
10
44
20
40
30
1.5
11
61.5
21
23
31
3
0
TEXT
8
RECEIVER_LABELS
1
482
10
44
20
40
30
1.5
11
44
21
40
31
1.5
40
0.3
72
1
73
2
0
LINE
8
RECEIVERS
10
44
20
42
30
1.5
11
61.5
21
23
31
3
0
TEXT
8
RECEIVER_LABELS
1
483
10
44
20
42
30
1.5
11
44
21
42
31
1.5
40
0.3
72
1
73
2
0
LINE
8
RECEIVERS
10
44
20
44
30
1.5
11
61.5
21
23
31
3
0
TEXT
8
RECEIVER_LABELS
1
484
10
44
20
44
30
1.5
11
44
21
44
31
1.5
40
0.3
72
1
73
2
0
LINE
8
RECEIVERS
10
46
20
2
30
1.5
11
61.5
21
23
31
3
0
TEXT
8
RECEIVER_LABELS
1
485
10
46
20
2
30
1.5
11
46
21
2
31
1.5
40
0.3
72
1
73
2
0
LINE
8
RECEIVERS
10
46
20
4
30
1.5
11
61.5
21
23
31
3
0
TEXT
8
RECEIVER_LABELS
1
486
10
46
20
4
30
1.5
11
46
21
4
31
1.5
40
0.3
72
1
73
2
0
LINE
8
RECEIVERS
10
46
20
6
30
1.5
11
61.5
21
23
31
3
0
TEXT
8
RECEIVER_LABELS
1
487
10
46
20
6
30
1.5
11
46
21
6
31
1.5
40
0.3
72
1
73
2
0
LINE
8
RECEIVERS
10
46
20
8
30
1.5
11
61.5
21
23
31
3
0
TEXT
8
RECEIVER_LABELS
1
488
10
46
20
8
30
1.5
11
46
21
8
31
1.5
40
0.3
72
1
73
2
0
LINE
8
RECEIVERS
10
46
20
10
30
1.5
11
61.5
21
23
31
3
0
TEXT
8
RECEIVER_LABELS
1
489
10
46
20
10
30
1.5
11
46
21
10
31
1.5
40
0.3
72
1
73
2
0
LINE
8
RECEIVERS
10
46
20
12
30
1.5
11
61.5
21
23
31
3
0
TEXT
8
RECEIVER_LABELS
1
490
10
46
20
12
30
1.5
11
46
21
12
31
1.5
40
0.3
72
1
73
2
0
LINE
8
RECEIVERS
10
46
20
14
30
1.5
11
61.5
21
23
31
3
0
TEXT
8
RECEIVER_LABELS
1
491
10
46
20
14
30
1.5
11
46
21
14
31
1.5
40
0.3
72
1
73
2
0
LINE
8
RECEIVERS
10
46
20
16
30
1.5
11
61.5
21
23
31
3
0
TEXT
8
RECEIVER_LABELS
1
492
10
46
20
16
30
1.5
11
46
21
16
31
1.5
40
0.3
72
1
73
2
0
LINE
8
RECEIVERS
10
46
20
18
30
1.5
11
61.5
21
23
31
3
0
TEXT
8
RECEIVER_LABELS
1
493
10
46
20
18
30
1.5
11
46
21
18
31
1.5
40
0.3
72
1
73
2
0
LINE
8
RECEIVERS
10
46
20
20
30
1.5
11
61.5
21
23
31
3
0
TEXT
8
RECEIVER_LABELS
1
494
10
46
20
20
30
1.5
11
46
21
20
31
1.5
40
0.3
72
1
73
2
0
LINE
8
RECEIVERS
10
46
20
22
30
1.5
11
61.5
21
23
31
3
0
TEXT
8
RECEIVER_LABELS
1
495
10
46
20
22
30
1.5
11
46
21
22
31
1.5
40
0.3
72
1
73
2
0
LINE
8
RECEIVERS
10
46
20
24
30
1.5
11
61.5
21
23
31
3
0
TEXT
8
RECEIVER_LABELS
1
496
10
46
20
24
30
1.5
11
46
21
24
31
1.5
40
0.3
72
1
73
2
0
LINE
8
RECEIVERS
10
46
20
26
30
1.5
11
61.5
21
23
31
3
0
TEXT
8
RECEIVER_LABELS
1
497
10
46
20
26
30
1.5
11
46
21
26
31
1.5
40
0.3
72
1
73
2
0
LINE
8
RECEIVERS
10
46
20
28
30
1.5
11
61.5
21
23
31
3
0
TEXT
8
RECEIVER_LABELS
1
498
10
46
20
28
30
1.5
11
46
21
28
31
1.5
40
0.3
72
1
73
2
0
LINE
8
RECEIVERS
10
46
20
30
30
1.5
11
61.5
21
23
31
3
0
TEXT
8
RECEIVER_LABELS
1
499
10
46
20
30
30
1.5
11
46
21
30
31
1.5
40
0.3
72
1
73
2
0
LINE
8
RECEIVERS
10
46
20
32
30
1.5
11
61.5
21
23
31
3
0
TEXT
8
RECEIVER_LABELS
1
500
10
46
20
32
30
1.5
11
46
21
32
31
1.5
40
0.3
72
1
73
2
0
LINE
8
RECEIVERS
10
46
20
34
30
1.5
11
61.5
21
23
31
3
0
TEXT
8
RECEIVER_LABELS
1
501
10
46
20
34
30
1.5
11
46
21
34
31
1.5
40
0.3
72
1
73
2
0
LINE
8
RECEIVERS
10
46
20
36
30
1.5
11
61.5
21
23
31
3
0
TEXT
8
RECEIVER_LABELS
1
502
10
46
20
36
30
1.5
11
46
21
36
31
1.5
40
0.3
72
1
73
2
0
LINE
8
RECEIVERS
10
46
20
38
30
1.5
11
61.5
21
23
31
3
0
TEXT
8
RECEIVER_LABELS
1
503
10
46
20
38
30
1.5
11
46
21
38
31
1.5
40
0.3
72
1
73
2
0
LINE
8
RECEIVERS
10
46
20
40
30
1.5
11
61.5
21
23
31
3
0
TEXT
8
RECEIVER_LABELS
1
504
10
46
20
40
30
1.5
11
46
21
40
31
1.5
40
0.3
72
1
73
2
0
LINE
8
RECEIVERS
10
46
20
42
30
1.5
11
61.5
21
23
31
3
0
TEXT
8
RECEIVER_LABELS
1
505
10
46
20
42
30
1.5
11
46
21
42
31
1.5
40
0.3
72
1
73
2
0
LINE
8
RECEIVERS
10
46
20
44
30
1.5
11
61.5
21
23
31
3
0
TEXT
8
RECEIVER_LABELS
1
506
10
46
20
44
30
1.5
11
46
21
44
31
1.5
40
0.3
72
1
73
2
0
LINE
8
RECEIVERS
10
48
20
2
30
1.5
11
61.5
21
23
31
3
0
TEXT
8
RECEIVER_LABELS
1
507
10
48
20
2
30
1.5
11
48
21
2
31
1.5
40
0.3
72
1
73
2
0
LINE
8
RECEIVERS
10
48
20
4
30
1.5
11
61.5
21
23
31
3
0
TEXT
8
RECEIVER_LABELS
1
508
10
48
20
4
30
1.5
11
48
21
4
31
1.5
40
0.3
72
1
73
2
0
LINE
8
RECEIVERS
10
48
20
6
30
1.5
11
61.5
21
23
31
3
0
TEXT
8
RECEIVER_LABELS
1
509
10
48
20
6
30
1.5
11
48
21
6
31
1.5
40
0.3
72
1
73
2
0
LINE
8
RECEIVERS
10
48
20
8
30
1.5
11
61.5
21
23
31
3
0
TEXT
8
RECEIVER_LABELS
1
510
10
48
20
8
30
1.5
11
48
21
8
31
1.5
40
0.3
72
1
73
2
0
LINE
8
RECEIVERS
10
48
20
10
30
1.5
11
61.5
21
23
31
3
0
TEXT
8
RECEIVER_LABELS
1
511
10
48
20
10
30
1.5
11
48
21
10
31
1.5
40
0.3
72
1
73
2
0
LINE
8
RECEIVERS
10
48
20
12
30
1.5
11
61.5
21
23
31
3
0
TEXT
8
RECEIVER_LABELS
1
512
10
48
20
12
30
1.5
11
48
21
12
31
1.5
40
0.3
72
1
73
2
0
LINE
8
RECEIVERS
10
48
20
14
30
1.5
11
61.5
21
23
31
3
0
TEXT
8
RECEIVER_LABELS
1
513
10
48
20
14
30
1.5
11
48
21
14
31
1.5
40
0.3
72
1
73
2
0
LINE
8
RECEIVERS
10
48
20
16
30
1.5
11
61.5
21
23
31
3
0
TEXT
8
RECEIVER_LABELS
1
514
10
48
20
16
30
1.5
11
48
21
16
31
1.5
40
0.3
72
1
73
2
0
LINE
8
RECEIVERS
10
48
20
18
30
1.5
11
61.5
21
23
31
3
0
TEXT
8
RECEIVER_LABELS
1
515
10
48
20
18
30
1.5
11
48
21
18
31
1.5
40
0.3
72
1
73
2
0
LINE
8
RECEIVERS
10
48
20
20
30
1.5
11
61.5
21
23
31
3
0
TEXT
8
RECEIVER_LABELS
1
516
10
48
20
20
30
1.5
11
48
21
20
31
1.5
40
0.3
72
1
73
2
0
LINE
8
RECEIVERS
10
48
20
22
30
1.5
11
61.5
21
23
31
3
0
TEXT
8
RECEIVER_LABELS
1
517
10
48
20
22
30
1.5
11
48
21
22
31
1.5
40
0.3
72
1
73
2
0
LINE
8
RECEIVERS
10
48
20
24
30
1.5
11
61.5
21
23
31
3
0
TEXT
8
RECEIVER_LABELS
1
518
10
48
20
24
30
1.5
11
48
21
24
31
1.5
40
0.3
72
1
73
2
0
LINE
8
RECEIVERS
10
48
20
26
30
1.5
11
61.5
21
23
31
3
0
TEXT
8
RECEIVER_LABELS
1
519
10
48
20
26
30
1.5
11
48
21
26
31
1.5
40
0.3
72
1
73
2
0
LINE
8
RECEIVERS
10
48
20
28
30
1.5
11
61.5
21
23
31
3
0
TEXT
8
RECEIVER_LABELS
1
520
10
48
20
28
30
1.5
11
48
21
28
31
1.5
40
0.3
72
1
73
2
0
LINE
8
RECEIVERS
10
48
20
30
30
1.5
11
61.5
21
23
31
3
0
TEXT
8
RECEIVER_LABELS
1
521
10
48
20
30
30
1.5
11
48
21
30
31
1.5
40
0.3
72
1
73
2
0
LINE
8
RECEIVERS
10
48
20
32
30
1.5
11
61.5
21
23
31
3
0
TEXT
8
RECEIVER_LABELS
1
522
10
48
20
32
30
1.5
11
48
21
32
31
1.5
40
0.3
72
1
73
2
0
LINE
8
RECEIVERS
10
48
20
34
30
1.5
11
61.5
21
23
31
3
0
TEXT
8
RECEIVER_LABELS
1
523
10
48
20
34
30
1.5
11
48
21
34
31
1.5
40
0.3
72
1
73
2
0
LINE
8
RECEIVERS
10
48
20
36
30
1.5
11
61.5
21
23
31
3
0
TEXT
8
RECEIVER_LABELS
1
524
10
48
20
36
30
1.5
11
48
21
36
31
1.5
40
0.3
72
1
73
2
0
LINE
8
RECEIVERS
10
48
20
38
30
1.5
11
61.5
21
23
31
3
0
TEXT
8
RECEIVER_LABELS
1
525
10
48
20
38
30
1.5
11
48
21
38
31
1.5
40
0.3
72
1
73
2
0
LINE
8
RECEIVERS
10
48
20
40
30
1.5
11
61.5
21
23
31
3
0
TEXT
8
RECEIVER_LABELS
1
526
10
48
20
40
30
1.5
11
48
21
40
31
1.5
40
0.3
72
1
73
2
0
LINE
8
RECEIVERS
10
48
20
42
30
1.5
11
61.5
21
23
31
3
0
TEXT
8
RECEIVER_LABELS
1
527
10
48
20
42
30
1.5
11
48
21
42
31
1.5
40
0.3
72
1
73
2
0
LINE
8
RECEIVERS
10
48
20
44
30
1.5
11
61.5
21
23
31
3
0
TEXT
8
RECEIVER_LABELS
1
528
10
48
20
44
30
1.5
11
48
21
44
31
1.5
40
0.3
72
1
73
2
0
LINE
8
RECEIVERS
10
50
20
2
30
1.5
11
61.5
21
23
31
3
0
TEXT
8
RECEIVER_LABELS
1
529
10
50
20
2
30
1.5
11
50
21
2
31
1.5
40
0.3
72
1
73
2
0
LINE
8
RECEIVERS
10
50
20
4
30
1.5
11
61.5
21
23
31
3
0
TEXT
8
RECEIVER_LABELS
1
530
10
50
20
4
30
1.5
11
50
21
4
31
1.5
40
0.3
72
1
73
2
0
LINE
8
RECEIVERS
10
50
20
6
30
1.5
11
61.5
21
23
31
3
0
TEXT
8
RECEIVER_LABELS
1
531
10
50
20
6
30
1.5
11
50
21
6
31
1.5
40
0.3
72
1
73
2
0
LINE
8
RECEIVERS
10
50
20
8
30
1.5
11
61.5
21
23
31
3
0
TEXT
8
RECEIVER_LABELS
1
532
10
50
20
8
30
1.5
11
50
21
8
31
1.5
40
0.3
72
1
73
2
0
LINE
8
RECEIVERS
10
50
20
10
30
1.5
11
61.5
21
23
31
3
0
TEXT
8
RECEIVER_LABELS
1
533
10
50
20
10
30
1.5
11
50
21
10
31
1.5
40
0.3
72
1
73
2
0
LINE
8
RECEIVERS
10
50
20
12
30
1.5
11
61.5
21
23
31
3
0
TEXT
8
RECEIVER_LABELS
1
534
10
50
20
12
30
1.5
11
50
21
12
31
1.5
40
0.3
72
1
73
2
0
LINE
8
RECEIVERS
10
50
20
14
30
1.5
11
61.5
21
23
31
3
0
TEXT
8
RECEIVER_LABELS
1
535
10
50
20
14
30
1.5
11
50
21
14
31
1.5
40
0.3
72
1
73
2
0
LINE
8
RECEIVERS
10
50
20
16
30
1.5
11
61.5
21
23
31
3
0
TEXT
8
RECEIVER_LABELS
1
536
10
50
20
16
30
1.5
11
50
21
16
31
1.5
40
0.3
72
1
73
2
0
LINE
8
RECEIVERS
10
50
20
18
30
1.5
11
61.5
21
23
31
3
0
TEXT
8
RECEIVER_LABELS
1
537
10
50
20
18
30
1.5
11
50
21
18
31
1.5
40
0.3
72
1
73
2
0
LINE
8
RECEIVERS
10
50
20
20
30
1.5
11
61.5
21
23
31
3
0
TEXT
8
RECEIVER_LABELS
1
538
10
50
20
20
30
1.5
11
50
21
20
31
1.5
40
0.3
72
1
73
2
0
LINE
8
RECEIVERS
10
50
20
22
30
1.5
11
61.5
21
23
31
3
0
TEXT
8
RECEIVER_LABELS
1
539
10
50
20
22
30
1.5
11
50
21
22
31
1.5
40
0.3
72
1
73
2
0
LINE
8
RECEIVERS
10
50
20
24
30
1.5
11
61.5
21
23
31
3
0
TEXT
8
RECEIVER_LABELS
1
540
10
50
20
24
30
1.5
11
50
21
24
31
1.5
40
0.3
72
1
73
2
0
LINE
8
RECEIVERS
10
50
20
26
30
1.5
11
61.5
21
23
31
3
0
TEXT
8
RECEIVER_LABELS
1
541
10
50
20
26
30
1.5
11
50
21
26
31
1.5
40
0.3
72
1
73
2
0
LINE
8
RECEIVERS
10
50
20
28
30
1.5
11
61.5
21
23
31
3
0
TEXT
8
RECEIVER_LABELS
1
542
10
50
20
28
30
1.5
11
50
21
28
31
1.5
40
0.3
72
1
73
2
0
LINE
8
RECEIVERS
10
50
20
30
30
1.5
11
61.5
21
23
31
3
0
TEXT
8
RECEIVER_LABELS
1
543
10
50
20
30
30
1.5
11
50
21
30
31
1.5
40
0.3
72
1
73
2
0
LINE
8
RECEIVERS
10
50
20
32
30
1.5
11
61.5
21
23
31
3
0
TEXT
8
RECEIVER_LABELS
1
544
10
50
20
32
30
1.5
11
50
21
32
31
1.5
40
0.3
72
1
73
2
0
LINE
8
RECEIVERS
10
50
20
34
30
1.5
11
61.5
21
23
31
3
0
TEXT
8
RECEIVER_LABELS
1
545
10
50
20
34
30
1.5
11
50
21
34
31
1.5
40
0.3
72
1
73
2
0
LINE
8
RECEIVERS
10
50
20
36
30
1.5
11
61.5
21
23
31
3
0
TEXT
8
RECEIVER_LABELS
1
546
10
50
20
36
30
1.5
11
50
21
36
31
1.5
40
0.3
72
1
73
2
0
LINE
8
RECEIVERS
10
50
20
38
30
1.5
11
61.5
21
23
31
3
0
TEXT
8
RECEIVER_LABELS
1
547
10
50
20
38
30
1.5
11
50
21
38
31
1.5
40
0.3
72
1
73
2
0
LINE
8
RECEIVERS
10
50
20
40
30
1.5
11
61.5
21
23
31
3
0
TEXT
8
RECEIVER_LABELS
1
548
10
50
20
40
30
1.5
11
50
21
40
31
1.5
40
0.3
72
1
73
2
0
LINE
8
RECEIVERS
10
50
20
42
30
1.5
11
61.5
21
23
31
3
0
TEXT
8
RECEIVER_LABELS
1
549
10
50
20
42
30
1.5
11
50
21
42
31
1.5
40
0.3
72
1
73
2
0
LINE
8
RECEIVERS
10
50
20
44
30
1.5
11
61.5
21
23
31
3
0
TEXT
8
RECEIVER_LABELS
1
550
10
50
20
44
30
1.5
11
50
21
44
31
1.5
40
0.3
72
1
73
2
0
LINE
8
RECEIVERS
10
52
20
2
30
1.5
11
61.5
21
23
31
3
0
TEXT
8
RECEIVER_LABELS
1
551
10
52
20
2
30
1.5
11
52
21
2
31
1.5
40
0.3
72
1
73
2
0
LINE
8
RECEIVERS
10
52
20
4
30
1.5
11
61.5
21
23
31
3
0
TEXT
8
RECEIVER_LABELS
1
552
10
52
20
4
30
1.5
11
52
21
4
31
1.5
40
0.3
72
1
73
2
0
LINE
8
RECEIVERS
10
52
20
6
30
1.5
11
61.5
21
23
31
3
0
TEXT
8
RECEIVER_LABELS
1
553
10
52
20
6
30
1.5
11
52
21
6
31
1.5
40
0.3
72
1
73
2
0
LINE
8
RECEIVERS
10
52
20
8
30
1.5
11
61.5
21
23
31
3
0
TEXT
8
RECEIVER_LABELS
1
554
10
52
20
8
30
1.5
11
52
21
8
31
1.5
40
0.3
72
1
73
2
0
LINE
8
RECEIVERS
10
52
20
10
30
1.5
11
61.5
21
23
31
3
0
TEXT
8
RECEIVER_LABELS
1
555
10
52
20
10
30
1.5
11
52
21
10
31
1.5
40
0.3
72
1
73
2
0
LINE
8
RECEIVERS
10
52
20
12
30
1.5
11
61.5
21
23
31
3
0
TEXT
8
RECEIVER_LABELS
1
556
10
52
20
12
30
1.5
11
52
21
12
31
1.5
40
0.3
72
1
73
2
0
LINE
8
RECEIVERS
10
52
20
14
30
1.5
11
61.5
21
23
31
3
0
TEXT
8
RECEIVER_LABELS
1
557
10
52
20
14
30
1.5
11
52
21
14
31
1.5
40
0.3
72
1
73
2
0
LINE
8
RECEIVERS
10
52
20
16
30
1.5
11
61.5
21
23
31
3
0
TEXT
8
RECEIVER_LABELS
1
558
10
52
20
16
30
1.5
11
52
21
16
31
1.5
40
0.3
72
1
73
2
0
LINE
8
RECEIVERS
10
52
20
18
30
1.5
11
61.5
21
23
31
3
0
TEXT
8
RECEIVER_LABELS
1
559
10
52
20
18
30
1.5
11
52
21
18
31
1.5
40
0.3
72
1
73
2
0
LINE
8
RECEIVERS
10
52
20
20
30
1.5
11
61.5
21
23
31
3
0
TEXT
8
RECEIVER_LABELS
1
560
10
52
20
20
30
1.5
11
52
21
20
31
1.5
40
0.3
72
1
73
2
0
LINE
8
RECEIVERS
10
52
20
22
30
1.5
11
61.5
21
23
31
3
0
TEXT
8
RECEIVER_LABELS
1
561
10
52
20
22
30
1.5
11
52
21
22
31
1.5
40
0.3
72
1
73
2
0
LINE
8
RECEIVERS
10
52
20
24
30
1.5
11
61.5
21
23
31
3
0
TEXT
8
RECEIVER_LABELS
1
562
10
52
20
24
30
1.5
11
52
21
24
31
1.5
40
0.3
72
1
73
2
0
LINE
8
RECEIVERS
10
52
20
26
30
1.5
11
61.5
21
23
31
3
0
TEXT
8
RECEIVER_LABELS
1
563
10
52
20
26
30
1.5
11
52
21
26
31
1.5
40
0.3
72
1
73
2
0
LINE
8
RECEIVERS
10
52
20
28
30
1.5
11
61.5
21
23
31
3
0
TEXT
8
RECEIVER_LABELS
1
564
10
52
20
28
30
1.5
11
52
21
28
31
1.5
40
0.3
72
1
73
2
0
LINE
8
RECEIVERS
10
52
20
30
30
1.5
11
61.5
21
23
31
3
0
TEXT
8
RECEIVER_LABELS
1
565
10
52
20
30
30
1.5
11
52
21
30
31
1.5
40
0.3
72
1
73
2
0
LINE
8
RECEIVERS
10
52
20
32
30
1.5
11
61.5
21
23
31
3
0
TEXT
8
RECEIVER_LABELS
1
566
10
52
20
32
30
1.5
11
52
21
32
31
1.5
40
0.3
72
1
73
2
0
LINE
8
RECEIVERS
10
52
20
34
30
1.5
11
61.5
21
23
31
3
0
TEXT
8
RECEIVER_LABELS
1
567
10
52
20
34
30
1.5
11
52
21
34
31
1.5
40
0.3
72
1
73
2
0
LINE
8
RECEIVERS
10
52
20
36
30
1.5
11
61.5
21
23
31
3
0
TEXT
8
RECEIVER_LABELS
1
568
10
52
20
36
30
1.5
11
52
21
36
31
1.5
40
0.3
72
1
73
2
0
LINE
8
RECEIVERS
10
52
20
38
30
1.5
11
61.5
21
23
31
3
0
TEXT
8
RECEIVER_LABELS
1
569
10
52
20
38
30
1.5
11
52
21
38
31
1.5
40
0.3
72
1
73
2
0
LINE
8
RECEIVERS
10
52
20
40
30
1.5
11
61.5
21
23
31
3
0
TEXT
8
RECEIVER_LABELS
1
570
10
52
20
40
30
1.5
11
52
21
40
31
1.5
40
0.3
72
1
73
2
0
LINE
8
RECEIVERS
10
52
20
42
30
1.5
11
61.5
21
23
31
3
0
TEXT
8
RECEIVER_LABELS
1
571
10
52
20
42
30
1.5
11
52
21
42
31
1.5
40
0.3
72
1
73
2
0
LINE
8
RECEIVERS
10
52
20
44
30
1.5
11
61.5
21
23
31
3
0
TEXT
8
RECEIVER_LABELS
1
572
10
52
20
44
30
1.5
11
52
21
44
31
1.5
40
0.3
72
1
73
2
0
LINE
8
RECEIVERS
10
54
20
2
30
1.5
11
61.5
21
23
31
3
0
TEXT
8
RECEIVER_LABELS
1
573
10
54
20
2
30
1.5
11
54
21
2
31
1.5
40
0.3
72
1
73
2
0
LINE
8
RECEIVERS
10
54
20
4
30
1.5
11
61.5
21
23
31
3
0
TEXT
8
RECEIVER_LABELS
1
574
10
54
20
4
30
1.5
11
54
21
4
31
1.5
40
0.3
72
1
73
2
0
LINE
8
RECEIVERS
10
54
20
6
30
1.5
11
61.5
21
23
31
3
0
TEXT
8
RECEIVER_LABELS
1
575
10
54
20
6
30
1.5
11
54
21
6
31
1.5
40
0.3
72
1
73
2
0
LINE
8
RECEIVERS
10
54
20
8
30
1.5
11
61.5
21
23
31
3
0
TEXT
8
RECEIVER_LABELS
1
576
10
54
20
8
30
1.5
11
54
21
8
31
1.5
40
0.3
72
1
73
2
0
LINE
8
RECEIVERS
10
54
20
10
30
1.5
11
61.5
21
23
31
3
0
TEXT
8
RECEIVER_LABELS
1
577
10
54
20
10
30
1.5
11
54
21
10
31
1.5
40
0.3
72
1
73
2
0
LINE
8
RECEIVERS
10
54
20
12
30
1.5
11
61.5
21
23
31
3
0
TEXT
8
RECEIVER_LABELS
1
578
10
54
20
12
30
1.5
11
54
21
12
31
1.5
40
0.3
72
1
73
2
0
LINE
8
RECEIVERS
10
54
20
14
30
1.5
11
61.5
21
23
31
3
0
TEXT
8
RECEIVER_LABELS
1
579
10
54
20
14
30
1.5
11
54
21
14
31
1.5
40
0.3
72
1
73
2
0
LINE
8
RECEIVERS
10
54
20
16
30
1.5
11
61.5
21
23
31
3
0
TEXT
8
RECEIVER_LABELS
1
580
10
54
20
16
30
1.5
11
54
21
16
31
1.5
40
0.3
72
1
73
2
0
LINE
8
RECEIVERS
10
54
20
18
30
1.5
11
61.5
21
23
31
3
0
TEXT
8
RECEIVER_LABELS
1
581
10
54
20
18
30
1.5
11
54
21
18
31
1.5
40
0.3
72
1
73
2
0
LINE
8
RECEIVERS
10
54
20
20
30
1.5
11
61.5
21
23
31
3
0
TEXT
8
RECEIVER_LABELS
1
582
10
54
20
20
30
1.5
11
54
21
20
31
1.5
40
0.3
72
1
73
2
0
LINE
8
RECEIVERS
10
54
20
22
30
1.5
11
61.5
21
23
31
3
0
TEXT
8
RECEIVER_LABELS
1
583
10
54
20
22
30
1.5
11
54
21
22
31
1.5
40
0.3
72
1
73
2
0
LINE
8
RECEIVERS
10
54
20
24
30
1.5
11
61.5
21
23
31
3
0
TEXT
8
RECEIVER_LABELS
1
584
10
54
20
24
30
1.5
11
54
21
24
31
1.5
40
0.3
72
1
73
2
0
LINE
8
RECEIVERS
10
54
20
26
30
1.5
11
61.5
21
23
31
3
0
TEXT
8
RECEIVER_LABELS
1
585
10
54
20
26
30
1.5
11
54
21
26
31
1.5
40
0.3
72
1
73
2
0
LINE
8
RECEIVERS
10
54
20
28
30
1.5
11
61.5
21
23
31
3
0
TEXT
8
RECEIVER_LABELS
1
586
10
54
20
28
30
1.5
11
54
21
28
31
1.5
40
0.3
72
1
73
2
0
LINE
8
RECEIVERS
10
54
20
30
30
1.5
11
61.5
21
23
31
3
0
TEXT
8
RECEIVER_LABELS
1
587
10
54
20
30
30
1.5
11
54
21
30
31
1.5
40
0.3
72
1
73
2
0
LINE
8
RECEIVERS
10
54
20
32
30
1.5
11
61.5
21
23
31
3
0
TEXT
8
RECEIVER_LABELS
1
588
10
54
20
32
30
1.5
11
54
21
32
31
1.5
40
0.3
72
1
73
2
0
LINE
8
RECEIVERS
10
54
20
34
30
1.5
11
61.5
21
23
31
3
0
TEXT
8
RECEIVER_LABELS
1
589
10
54
20
34
30
1.5
11
54
21
34
31
1.5
40
0.3
72
1
73
2
0
LINE
8
RECEIVERS
10
54
20
36
30
1.5
11
61.5
21
23
31
3
0
TEXT
8
RECEIVER_LABELS
1
590
10
54
20
36
30
1.5
11
54
21
36
31
1.5
40
0.3
72
1
73
2
0
LINE
8
RECEIVERS
10
54
20
38
30
1.5
11
61.5
21
23
31
3
0
TEXT
8
RECEIVER_LABELS
1
591
10
54
20
38
30
1.5
11
54
21
38
31
1.5
40
0.3
72
1
73
2
0
LINE
8
RECEIVERS
10
54
20
40
30
1.5
11
61.5
21
23
31
3
0
TEXT
8
RECEIVER_LABELS
1
592
10
54
20
40
30
1.5
11
54
21
40
31
1.5
40
0.3
72
1
73
2
0
LINE
8
RECEIVERS
10
54
20
42
30
1.5
11
61.5
21
23
31
3
0
TEXT
8
RECEIVER_LABELS
1
593
10
54
20
42
30
1.5
11
54
21
42
31
1.5
40
0.3
72
1
73
2
0
LINE
8
RECEIVERS
10
54
20
44
30
1.5
11
61.5
21
23
31
3
0
TEXT
8
RECEIVER_LABELS
1
594
10
54
20
44
30
1.5
11
54
21
44
31
1.5
40
0.3
72
1
73
2
0
LINE
8
RECEIVERS
10
56
20
2
30
1.5
11
61.5
21
23
31
3
0
TEXT
8
RECEIVER_LABELS
1
595
10
56
20
2
30
1.5
11
56
21
2
31
1.5
40
0.3
72
1
73
2
0
LINE
8
RECEIVERS
10
56
20
4
30
1.5
11
61.5
21
23
31
3
0
TEXT
8
RECEIVER_LABELS
1
596
10
56
20
4
30
1.5
11
56
21
4
31
1.5
40
0.3
72
1
73
2
0
LINE
8
RECEIVERS
10
56
20
6
30
1.5
11
61.5
21
23
31
3
0
TEXT
8
RECEIVER_LABELS
1
597
10
56
20
6
30
1.5
11
56
21
6
31
1.5
40
0.3
72
1
73
2
0
LINE
8
RECEIVERS
10
56
20
8
30
1.5
11
61.5
21
23
31
3
0
TEXT
8
RECEIVER_LABELS
1
598
10
56
20
8
30
1.5
11
56
21
8
31
1.5
40
0.3
72
1
73
2
0
LINE
8
RECEIVERS
10
56
20
10
30
1.5
11
61.5
21
23
31
3
0
TEXT
8
RECEIVER_LABELS
1
599
10
56
20
10
30
1.5
11
56
21
10
31
1.5
40
0.3
72
1
73
2
0
LINE
8
RECEIVERS
10
56
20
12
30
1.5
11
61.5
21
23
31
3
0
TEXT
8
RECEIVER_LABELS
1
600
10
56
20
12
30
1.5
11
56
21
12
31
1.5
40
0.3
72
1
73
2
0
LINE
8
RECEIVERS
10
56
20
14
30
1.5
11
61.5
21
23
31
3
0
TEXT
8
RECEIVER_LABELS
1
601
10
56
20
14
30
1.5
11
56
21
14
31
1.5
40
0.3
72
1
73
2
0
LINE
8
RECEIVERS
10
56
20
16
30
1.5
11
61.5
21
23
31
3
0
TEXT
8
RECEIVER_LABELS
1
602
10
56
20
16
30
1.5
11
56
21
16
31
1.5
40
0.3
72
1
73
2
0
LINE
8
RECEIVERS
10
56
20
18
30
1.5
11
61.5
21
23
31
3
0
TEXT
8
RECEIVER_LABELS
1
603
10
56
20
18
30
1.5
11
56
21
18
31
1.5
40
0.3
72
1
73
2
0
LINE
8
RECEIVERS
10
56
20
20
30
1.5
11
61.5
21
23
31
3
0
TEXT
8
RECEIVER_LABELS
1
604
10
56
20
20
30
1.5
11
56
21
20
31
1.5
40
0.3
72
1
73
2
0
LINE
8
RECEIVERS
10
56
20
22
30
1.5
11
61.5
21
23
31
3
0
TEXT
8
RECEIVER_LABELS
1
605
10
56
20
22
30
1.5
11
56
21
22
31
1.5
40
0.3
72
1
73
2
0
LINE
8
RECEIVERS
10
56
20
24
30
1.5
11
61.5
21
23
31
3
0
TEXT
8
RECEIVER_LABELS
1
606
10
56
20
24
30
1.5
11
56
21
24
31
1.5
40
0.3
72
1
73
2
0
LINE
8
RECEIVERS
10
56
20
26
30
1.5
11
61.5
21
23
31
3
0
TEXT
8
RECEIVER_LABELS
1
607
10
56
20
26
30
1.5
11
56
21
26
31
1.5
40
0.3
72
1
73
2
0
LINE
8
RECEIVERS
10
56
20
28
30
1.5
11
61.5
21
23
31
3
0
TEXT
8
RECEIVER_LABELS
1
608
10
56
20
28
30
1.5
11
56
21
28
31
1.5
40
0.3
72
1
73
2
0
LINE
8
RECEIVERS
10
56
20
30
30
1.5
11
61.5
21
23
31
3
0
TEXT
8
RECEIVER_LABELS
1
609
10
56
20
30
30
1.5
11
56
21
30
31
1.5
40
0.3
72
1
73
2
0
LINE
8
RECEIVERS
10
56
20
32
30
1.5
11
61.5
21
23
31
3
0
TEXT
8
RECEIVER_LABELS
1
610
10
56
20
32
30
1.5
11
56
21
32
31
1.5
40
0.3
72
1
73
2
0
LINE
8
RECEIVERS
10
56
20
34
30
1.5
11
61.5
21
23
31
3
0
TEXT
8
RECEIVER_LABELS
1
611
10
56
20
34
30
1.5
11
56
21
34
31
1.5
40
0.3
72
1
73
2
0
LINE
8
RECEIVERS
10
56
20
36
30
1.5
11
61.5
21
23
31
3
0
TEXT
8
RECEIVER_LABELS
1
612
10
56
20
36
30
1.5
11
56
21
36
31
1.5
40
0.3
72
1
73
2
0
LINE
8
RECEIVERS
10
56
20
38
30
1.5
11
61.5
21
23
31
3
0
TEXT
8
RECEIVER_LABELS
1
613
10
56
20
38
30
1.5
11
56
21
38
31
1.5
40
0.3
72
1
73
2
0
LINE
8
RECEIVERS
10
56
20
40
30
1.5
11
61.5
21
23
31
3
0
TEXT
8
RECEIVER_LABELS
1
614
10
56
20
40
30
1.5
11
56
21
40
31
1.5
40
0.3
72
1
73
2
0
LINE
8
RECEIVERS
10
56
20
42
30
1.5
11
61.5
21
23
31
3
0
TEXT
8
RECEIVER_LABELS
1
615
10
56
20
42
30
1.5
11
56
21
42
31
1.5
40
0.3
72
1
73
2
0
LINE
8
RECEIVERS
10
56
20
44
30
1.5
11
61.5
21
23
31
3
0
TEXT
8
RECEIVER_LABELS
1
616
10
56
20
44
30
1.5
11
56
21
44
31
1.5
40
0.3
72
1
73
2
0
LINE
8
RECEIVERS
10
58
20
2
30
1.5
11
61.5
21
23
31
3
0
TEXT
8
RECEIVER_LABELS
1
617
10
58
20
2
30
1.5
11
58
21
2
31
1.5
40
0.3
72
1
73
2
0
LINE
8
RECEIVERS
10
58
20
4
30
1.5
11
61.5
21
23
31
3
0
TEXT
8
RECEIVER_LABELS
1
618
10
58
20
4
30
1.5
11
58
21
4
31
1.5
40
0.3
72
1
73
2
0
LINE
8
RECEIVERS
10
58
20
6
30
1.5
11
61.5
21
23
31
3
0
TEXT
8
RECEIVER_LABELS
1
619
10
58
20
6
30
1.5
11
58
21
6
31
1.5
40
0.3
72
1
73
2
0
LINE
8
RECEIVERS
10
58
20
8
30
1.5
11
61.5
21
23
31
3
0
TEXT
8
RECEIVER_LABELS
1
620
10
58
20
8
30
1.5
11
58
21
8
31
1.5
40
0.3
72
1
73
2
0
LINE
8
RECEIVERS
10
58
20
10
30
1.5
11
61.5
21
23
31
3
0
TEXT
8
RECEIVER_LABELS
1
621
10
58
20
10
30
1.5
11
58
21
10
31
1.5
40
0.3
72
1
73
2
0
LINE
8
RECEIVERS
10
58
20
12
30
1.5
11
61.5
21
23
31
3
0
TEXT
8
RECEIVER_LABELS
1
622
10
58
20
12
30
1.5
11
58
21
12
31
1.5
40
0.3
72
1
73
2
0
LINE
8
RECEIVERS
10
58
20
14
30
1.5
11
61.5
21
23
31
3
0
TEXT
8
RECEIVER_LABELS
1
623
10
58
20
14
30
1.5
11
58
21
14
31
1.5
40
0.3
72
1
73
2
0
LINE
8
RECEIVERS
10
58
20
16
30
1.5
11
61.5
21
23
31
3
0
TEXT
8
RECEIVER_LABELS
1
624
10
58
20
16
30
1.5
11
58
21
16
31
1.5
40
0.3
72
1
73
2
0
LINE
8
RECEIVERS
10
58
20
18
30
1.5
11
61.5
21
23
31
3
0
TEXT
8
RECEIVER_LABELS
1
625
10
58
20
18
30
1.5
11
58
21
18
31
1.5
40
0.3
72
1
73
2
0
LINE
8
RECEIVERS
10
58
20
20
30
1.5
11
61.5
21
23
31
3
0
TEXT
8
RECEIVER_LABELS
1
626
10
58
20
20
30
1.5
11
58
21
20
31
1.5
40
0.3
72
1
73
2
0
LINE
8
RECEIVERS
10
58
20
22
30
1.5
11
61.5
21
23
31
3
0
TEXT
8
RECEIVER_LABELS
1
627
10
58
20
22
30
1.5
11
58
21
22
31
1.5
40
0.3
72
1
73
2
0
LINE
8
RECEIVERS
10
58
20
24
30
1.5
11
61.5
21
23
31
3
0
TEXT
8
RECEIVER_LABELS
1
628
10
58
20
24
30
1.5
11
58
21
24
31
1.5
40
0.3
72
1
73
2
0
LINE
8
RECEIVERS
10
58
20
26
30
1.5
11
61.5
21
23
31
3
0
TEXT
8
RECEIVER_LABELS
1
629
10
58
20
26
30
1.5
11
58
21
26
31
1.5
40
0.3
72
1
73
2
0
LINE
8
RECEIVERS
10
58
20
28
30
1.5
11
61.5
21
23
31
3
0
TEXT
8
RECEIVER_LABELS
1
630
10
58
20
28
30
1.5
11
58
21
28
31
1.5
40
0.3
72
1
73
2
0
LINE
8
RECEIVERS
10
58
20
30
30
1.5
11
61.5
21
23
31
3
0
TEXT
8
RECEIVER_LABELS
1
631
10
58
20
30
30
1.5
11
58
21
30
31
1.5
40
0.3
72
1
73
2
0
LINE
8
RECEIVERS
10
58
20
32
30
1.5
11
61.5
21
23
31
3
0
TEXT
8
RECEIVER_LABELS
1
632
10
58
20
32
30
1.5
11
58
21
32
31
1.5
40
0.3
72
1
73
2
0
LINE
8
RECEIVERS
10
58
20
34
30
1.5
11
61.5
21
23
31
3
0
TEXT
8
RECEIVER_LABELS
1
633
10
58
20
34
30
1.5
11
58
21
34
31
1.5
40
0.3
72
1
73
2
0
LINE
8
RECEIVERS
10
58
20
36
30
1.5
11
61.5
21
23
31
3
0
TEXT
8
RECEIVER_LABELS
1
634
10
58
20
36
30
1.5
11
58
21
36
31
1.5
40
0.3
72
1
73
2
0
LINE
8
RECEIVERS
10
58
20
38
30
1.5
11
61.5
21
23
31
3
0
TEXT
8
RECEIVER_LABELS
1
635
10
58
20
38
30
1.5
11
58
21
38
31
1.5
40
0.3
72
1
73
2
0
LINE
8
RECEIVERS
10
58
20
40
30
1.5
11
61.5
21
23
31
3
0
TEXT
8
RECEIVER_LABELS
1
636
10
58
20
40
30
1.5
11
58
21
40
31
1.5
40
0.3
72
1
73
2
0
LINE
8
RECEIVERS
10
58
20
42
30
1.5
11
61.5
21
23
31
3
0
TEXT
8
RECEIVER_LABELS
1
637
10
58
20
42
30
1.5
11
58
21
42
31
1.5
40
0.3
72
1
73
2
0
LINE
8
RECEIVERS
10
58
20
44
30
1.5
11
61.5
21
23
31
3
0
TEXT
8
RECEIVER_LABELS
1
638
10
58
20
44
30
1.5
11
58
21
44
31
1.5
40
0.3
72
1
73
2
0
LINE
8
RECEIVERS
10
60
20
2
30
1.5
11
61.5
21
23
31
3
0
TEXT
8
RECEIVER_LABELS
1
639
10
60
20
2
30
1.5
11
60
21
2
31
1.5
40
0.3
72
1
73
2
0
LINE
8
RECEIVERS
10
60
20
4
30
1.5
11
61.5
21
23
31
3
0
TEXT
8
RECEIVER_LABELS
1
640
10
60
20
4
30
1.5
11
60
21
4
31
1.5
40
0.3
72
1
73
2
0
LINE
8
RECEIVERS
10
60
20
6
30
1.5
11
61.5
21
23
31
3
0
TEXT
8
RECEIVER_LABELS
1
641
10
60
20
6
30
1.5
11
60
21
6
31
1.5
40
0.3
72
1
73
2
0
LINE
8
RECEIVERS
10
60
20
8
30
1.5
11
61.5
21
23
31
3
0
TEXT
8
RECEIVER_LABELS
1
642
10
60
20
8
30
1.5
11
60
21
8
31
1.5
40
0.3
72
1
73
2
0
LINE
8
RECEIVERS
10
60
20
10
30
1.5
11
61.5
21
23
31
3
0
TEXT
8
RECEIVER_LABELS
1
643
10
60
20
10
30
1.5
11
60
21
10
31
1.5
40
0.3
72
1
73
2
0
LINE
8
RECEIVERS
10
60
20
12
30
1.5
11
61.5
21
23
31
3
0
TEXT
8
RECEIVER_LABELS
1
644
10
60
20
12
30
1.5
11
60
21
12
31
1.5
40
0.3
72
1
73
2
0
LINE
8
RECEIVERS
10
60
20
14
30
1.5
11
61.5
21
23
31
3
0
TEXT
8
RECEIVER_LABELS
1
645
10
60
20
14
30
1.5
11
60
21
14
31
1.5
40
0.3
72
1
73
2
0
LINE
8
RECEIVERS
10
60
20
16
30
1.5
11
61.5
21
23
31
3
0
TEXT
8
RECEIVER_LABELS
1
646
10
60
20
16
30
1.5
11
60
21
16
31
1.5
40
0.3
72
1
73
2
0
LINE
8
RECEIVERS
10
60
20
18
30
1.5
11
61.5
21
23
31
3
0
TEXT
8
RECEIVER_LABELS
1
647
10
60
20
18
30
1.5
11
60
21
18
31
1.5
40
0.3
72
1
73
2
0
LINE
8
RECEIVERS
10
60
20
20
30
1.5
11
61.5
21
23
31
3
0
TEXT
8
RECEIVER_LABELS
1
648
10
60
20
20
30
1.5
11
60
21
20
31
1.5
40
0.3
72
1
73
2
0
LINE
8
RECEIVERS
10
60
20
22
30
1.5
11
61.5
21
23
31
3
0
TEXT
8
RECEIVER_LABELS
1
649
10
60
20
22
30
1.5
11
60
21
22
31
1.5
40
0.3
72
1
73
2
0
LINE
8
RECEIVERS
10
60
20
24
30
1.5
11
61.5
21
23
31
3
0
TEXT
8
RECEIVER_LABELS
1
650
10
60
20
24
30
1.5
11
60
21
24
31
1.5
40
0.3
72
1
73
2
0
LINE
8
RECEIVERS
10
60
20
26
30
1.5
11
61.5
21
23
31
3
0
TEXT
8
RECEIVER_LABELS
1
651
10
60
20
26
30
1.5
11
60
21
26
31
1.5
40
0.3
72
1
73
2
0
LINE
8
RECEIVERS
10
60
20
28
30
1.5
11
61.5
21
23
31
3
0
TEXT
8
RECEIVER_LABELS
1
652
10
60
20
28
30
1.5
11
60
21
28
31
1.5
40
0.3
72
1
73
2
0
LINE
8
RECEIVERS
10
60
20
30
30
1.5
11
61.5
21
23
31
3
0
TEXT
8
RECEIVER_LABELS
1
653
10
60
20
30
30
1.5
11
60
21
30
31
1.5
40
0.3
72
1
73
2
0
LINE
8
RECEIVERS
10
60
20
32
30
1.5
11
61.5
21
23
31
3
0
TEXT
8
RECEIVER_LABELS
1
654
10
60
20
32
30
1.5
11
60
21
32
31
1.5
40
0.3
72
1
73
2
0
LINE
8
RECEIVERS
10
60
20
34
30
1.5
11
61.5
21
23
31
3
0
TEXT
8
RECEIVER_LABELS
1
655
10
60
20
34
30
1.5
11
60
21
34
31
1.5
40
0.3
72
1
73
2
0
LINE
8
RECEIVERS
10
60
20
36
30
1.5
11
61.5
21
23
31
3
0
TEXT
8
RECEIVER_LABELS
1
656
10
60
20
36
30
1.5
11
60
21
36
31
1.5
40
0.3
72
1
73
2
0
LINE
8
RECEIVERS
10
60
20
38
30
1.5
11
61.5
21
23
31
3
0
TEXT
8
RECEIVER_LABELS
1
657
10
60
20
38
30
1.5
11
60
21
38
31
1.5
40
0.3
72
1
73
2
0
LINE
8
RECEIVERS
10
60
20
40
30
1.5
11
61.5
21
23
31
3
0
TEXT
8
RECEIVER_LABELS
1
658
10
60
20
40
30
1.5
11
60
21
40
31
1.5
40
0.3
72
1
73
2
0
LINE
8
RECEIVERS
10
60
20
42
30
1.5
11
61.5
21
23
31
3
0
TEXT
8
RECEIVER_LABELS
1
659
10
60
20
42
30
1.5
11
60
21
42
31
1.5
40
0.3
72
1
73
2
0
LINE
8
RECEIVERS
10
60
20
44
30
1.5
11
61.5
21
23
31
3
0
TEXT
8
RECEIVER_LABELS
1
660
10
60
20
44
30
1.5
11
60
21
44
31
1.5
40
0.3
72
1
73
2
0
LINE
8
RECEIVERS
10
62
20
2
30
1.5
11
61.5
21
23
31
3
0
TEXT
8
RECEIVER_LABELS
1
661
10
62
20
2
30
1.5
11
62
21
2
31
1.5
40
0.3
72
1
73
2
0
LINE
8
RECEIVERS
10
62
20
4
30
1.5
11
61.5
21
23
31
3
0
TEXT
8
RECEIVER_LABELS
1
662
10
62
20
4
30
1.5
11
62
21
4
31
1.5
40
0.3
72
1
73
2
0
LINE
8
RECEIVERS
10
62
20
6
30
1.5
11
61.5
21
23
31
3
0
TEXT
8
RECEIVER_LABELS
1
663
10
62
20
6
30
1.5
11
62
21
6
31
1.5
40
0.3
72
1
73
2
0
LINE
8
RECEIVERS
10
62
20
8
30
1.5
11
61.5
21
23
31
3
0
TEXT
8
RECEIVER_LABELS
1
664
10
62
20
8
30
1.5
11
62
21
8
31
1.5
40
0.3
72
1
73
2
0
LINE
8
RECEIVERS
10
62
20
10
30
1.5
11
61.5
21
23
31
3
0
TEXT
8
RECEIVER_LABELS
1
665
10
62
20
10
30
1.5
11
62
21
10
31
1.5
40
0.3
72
1
73
2
0
LINE
8
RECEIVERS
10
62
20
12
30
1.5
11
61.5
21
23
31
3
0
TEXT
8
RECEIVER_LABELS
1
666
10
62
20
12
30
1.5
11
62
21
12
31
1.5
40
0.3
72
1
73
2
0
LINE
8
RECEIVERS
10
62
20
14
30
1.5
11
61.5
21
23
31
3
0
TEXT
8
RECEIVER_LABELS
1
667
10
62
20
14
30
1.5
11
62
21
14
31
1.5
40
0.3
72
1
73
2
0
LINE
8
RECEIVERS
10
62
20
16
30
1.5
11
61.5
21
23
31
3
0
TEXT
8
RECEIVER_LABELS
1
668
10
62
20
16
30
1.5
11
62
21
16
31
1.5
40
0.3
72
1
73
2
0
LINE
8
RECEIVERS
10
62
20
18
30
1.5
11
61.5
21
23
31
3
0
TEXT
8
RECEIVER_LABELS
1
669
10
62
20
18
30
1.5
11
62
21
18
31
1.5
40
0.3
72
1
73
2
0
LINE
8
RECEIVERS
10
62
20
20
30
1.5
11
61.5
21
23
31
3
0
TEXT
8
RECEIVER_LABELS
1
670
10
62
20
20
30
1.5
11
62
21
20
31
1.5
40
0.3
72
1
73
2
0
LINE
8
RECEIVERS
10
62
20
22
30
1.5
11
61.5
21
23
31
3
0
TEXT
8
RECEIVER_LABELS
1
671
10
62
20
22
30
1.5
11
62
21
22
31
1.5
40
0.3
72
1
73
2
0
LINE
8
RECEIVERS
10
62
20
24
30
1.5
11
61.5
21
23
31
3
0
TEXT
8
RECEIVER_LABELS
1
672
10
62
20
24
30
1.5
11
62
21
24
31
1.5
40
0.3
72
1
73
2
0
LINE
8
RECEIVERS
10
62
20
26
30
1.5
11
61.5
21
23
31
3
0
TEXT
8
RECEIVER_LABELS
1
673
10
62
20
26
30
1.5
11
62
21
26
31
1.5
40
0.3
72
1
73
2
0
LINE
8
RECEIVERS
10
62
20
28
30
1.5
11
61.5
21
23
31
3
0
TEXT
8
RECEIVER_LABELS
1
674
10
62
20
28
30
1.5
11
62
21
28
31
1.5
40
0.3
72
1
73
2
0
LINE
8
RECEIVERS
10
62
20
30
30
1.5
11
61.5
21
23
31
3
0
TEXT
8
RECEIVER_LABELS
1
675
10
62
20
30
30
1.5
11
62
21
30
31
1.5
40
0.3
72
1
73
2
0
LINE
8
RECEIVERS
10
62
20
32
30
1.5
11
61.5
21
23
31
3
0
TEXT
8
RECEIVER_LABELS
1
676
10
62
20
32
30
1.5
11
62
21
32
31
1.5
40
0.3
72
1
73
2
0
LINE
8
RECEIVERS
10
62
20
34
30
1.5
11
61.5
21
23
31
3
0
TEXT
8
RECEIVER_LABELS
1
677
10
62
20
34
30
1.5
11
62
21
34
31
1.5
40
0.3
72
1
73
2
0
LINE
8
RECEIVERS
10
62
20
36
30
1.5
11
61.5
21
23
31
3
0
TEXT
8
RECEIVER_LABELS
1
678
10
62
20
36
30
1.5
11
62
21
36
31
1.5
40
0.3
72
1
73
2
0
LINE
8
RECEIVERS
10
62
20
38
30
1.5
11
61.5
21
23
31
3
0
TEXT
8
RECEIVER_LABELS
1
679
10
62
20
38
30
1.5
11
62
21
38
31
1.5
40
0.3
72
1
73
2
0
LINE
8
RECEIVERS
10
62
20
40
30
1.5
11
61.5
21
23
31
3
0
TEXT
8
RECEIVER_LABELS
1
680
10
62
20
40
30
1.5
11
62
21
40
31
1.5
40
0.3
72
1
73
2
0
LINE
8
RECEIVERS
10
62
20
42
30
1.5
11
61.5
21
23
31
3
0
TEXT
8
RECEIVER_LABELS
1
681
10
62
20
42
30
1.5
11
62
21
42
31
1.5
40
0.3
72
1
73
2
0
LINE
8
RECEIVERS
10
62
20
44
30
1.5
11
61.5
21
23
31
3
0
TEXT
8
RECEIVER_LABELS
1
682
10
62
20
44
30
1.5
11
62
21
44
31
1.5
40
0.3
72
1
73
2
0
LINE
8
RECEIVERS
10
64
20
2
30
1.5
11
61.5
21
23
31
3
0
TEXT
8
RECEIVER_LABELS
1
683
10
64
20
2
30
1.5
11
64
21
2
31
1.5
40
0.3
72
1
73
2
0
LINE
8
RECEIVERS
10
64
20
4
30
1.5
11
61.5
21
23
31
3
0
TEXT
8
RECEIVER_LABELS
1
684
10
64
20
4
30
1.5
11
64
21
4
31
1.5
40
0.3
72
1
73
2
0
LINE
8
RECEIVERS
10
64
20
6
30
1.5
11
61.5
21
23
31
3
0
TEXT
8
RECEIVER_LABELS
1
685
10
64
20
6
30
1.5
11
64
21
6
31
1.5
40
0.3
72
1
73
2
0
LINE
8
RECEIVERS
10
64
20
8
30
1.5
11
61.5
21
23
31
3
0
TEXT
8
RECEIVER_LABELS
1
686
10
64
20
8
30
1.5
11
64
21
8
31
1.5
40
0.3
72
1
73
2
0
LINE
8
RECEIVERS
10
64
20
10
30
1.5
11
61.5
21
23
31
3
0
TEXT
8
RECEIVER_LABELS
1
687
10
64
20
10
30
1.5
11
64
21
10
31
1.5
40
0.3
72
1
73
2
0
LINE
8
RECEIVERS
10
64
20
12
30
1.5
11
61.5
21
23
31
3
0
TEXT
8
RECEIVER_LABELS
1
688
10
64
20
12
30
1.5
11
64
21
12
31
1.5
40
0.3
72
1
73
2
0
LINE
8
RECEIVERS
10
64
20
14
30
1.5
11
61.5
21
23
31
3
0
TEXT
8
RECEIVER_LABELS
1
689
10
64
20
14
30
1.5
11
64
21
14
31
1.5
40
0.3
72
1
73
2
0
LINE
8
RECEIVERS
10
64
20
16
30
1.5
11
61.5
21
23
31
3
0
TEXT
8
RECEIVER_LABELS
1
690
10
64
20
16
30
1.5
11
64
21
16
31
1.5
40
0.3
72
1
73
2
0
LINE
8
RECEIVERS
10
64
20
18
30
1.5
11
61.5
21
23
31
3
0
TEXT
8
RECEIVER_LABELS
1
691
10
64
20
18
30
1.5
11
64
21
18
31
1.5
40
0.3
72
1
73
2
0
LINE
8
RECEIVERS
10
64
20
20
30
1.5
11
61.5
21
23
31
3
0
TEXT
8
RECEIVER_LABELS
1
692
10
64
20
20
30
1.5
11
64
21
20
31
1.5
40
0.3
72
1
73
2
0
LINE
8
RECEIVERS
10
64
20
22
30
1.5
11
61.5
21
23
31
3
0
TEXT
8
RECEIVER_LABELS
1
693
10
64
20
22
30
1.5
11
64
21
22
31
1.5
40
0.3
72
1
73
2
0
LINE
8
RECEIVERS
10
64
20
24
30
1.5
11
61.5
21
23
31
3
0
TEXT
8
RECEIVER_LABELS
1
694
10
64
20
24
30
1.5
11
64
21
24
31
1.5
40
0.3
72
1
73
2
0
LINE
8
RECEIVERS
10
64
20
26
30
1.5
11
61.5
21
23
31
3
0
TEXT
8
RECEIVER_LABELS
1
695
10
64
20
26
30
1.5
11
64
21
26
31
1.5
40
0.3
72
1
73
2
0
LINE
8
RECEIVERS
10
64
20
28
30
1.5
11
61.5
21
23
31
3
0
TEXT
8
RECEIVER_LABELS
1
696
10
64
20
28
30
1.5
11
64
21
28
31
1.5
40
0.3
72
1
73
2
0
LINE
8
RECEIVERS
10
64
20
30
30
1.5
11
61.5
21
23
31
3
0
TEXT
8
RECEIVER_LABELS
1
697
10
64
20
30
30
1.5
11
64
21
30
31
1.5
40
0.3
72
1
73
2
0
LINE
8
RECEIVERS
10
64
20
32
30
1.5
11
61.5
21
23
31
3
0
TEXT
8
RECEIVER_LABELS
1
698
10
64
20
32
30
1.5
11
64
21
32
31
1.5
40
0.3
72
1
73
2
0
LINE
8
RECEIVERS
10
64
20
34
30
1.5
11
61.5
21
23
31
3
0
TEXT
8
RECEIVER_LABELS
1
699
10
64
20
34
30
1.5
11
64
21
34
31
1.5
40
0.3
72
1
73
2
0
LINE
8
RECEIVERS
10
64
20
36
30
1.5
11
61.5
21
23
31
3
0
TEXT
8
RECEIVER_LABELS
1
700
10
64
20
36
30
1.5
11
64
21
36
31
1.5
40
0.3
72
1
73
2
0
LINE
8
RECEIVERS
10
64
20
38
30
1.5
11
61.5
21
23
31
3
0
TEXT
8
RECEIVER_LABELS
1
701
10
64
20
38
30
1.5
11
64
21
38
31
1.5
40
0.3
72
1
73
2
0
LINE
8
RECEIVERS
10
64
20
40
30
1.5
11
61.5
21
23
31
3
0
TEXT
8
RECEIVER_LABELS
1
702
10
64
20
40
30
1.5
11
64
21
40
31
1.5
40
0.3
72
1
73
2
0
LINE
8
RECEIVERS
10
64
20
42
30
1.5
11
61.5
21
23
31
3
0
TEXT
8
RECEIVER_LABELS
1
703
10
64
20
42
30
1.5
11
64
21
42
31
1.5
40
0.3
72
1
73
2
0
LINE
8
RECEIVERS
10
64
20
44
30
1.5
11
61.5
21
23
31
3
0
TEXT
8
RECEIVER_LABELS
1
704
10
64
20
44
30
1.5
11
64
21
44
31
1.5
40
0.3
72
1
73
2
0
ENDSEC
0
EOF
